Guitar Riffs Archive

This is an archive of all of the random guitar riffs that this script has ever generated that are archived in the database.


Ptomaine Elixir

Guitar riff's name: Ptomaine Elixir
Guitar riff generated on 2020-02-26 12:04:54
This riff is 44 day(s) old.

----------------
----------------
----------------
7---2---7---7---
5---2---5---5---
----0-----------


Tradesman Building Jeweler Peeve

Guitar riff's name: Tradesman Building Jeweler Peeve
Guitar riff generated on 2020-02-26 11:38:35
This riff is 44 day(s) old.

----------------
----------------
----------------
2---5-7---4---4-
2---5-5---2---2-
0---3-----------


Wanderlust Ignominious

Guitar riff's name: Wanderlust Ignominious
Guitar riff generated on 2020-02-26 11:16:55
This riff is 44 day(s) old.

-----------------
-----------------
-----------------
4-4-22---4---2---
2-2-00---2---0---
-----------------


Infidel Indiscriminate

Guitar riff's name: Infidel Indiscriminate
Guitar riff generated on 2020-02-26 11:16:54
This riff is 44 day(s) old.

----------------
----------------
----------------
47-5---2---77-2-
25-5---2---55-0-
---3---0--------


Refuse Standstill What Final

Guitar riff's name: Refuse Standstill What Final
Guitar riff generated on 2020-02-26 11:03:33
This riff is 44 day(s) old.

-----------------
-----------------
-----------------
2-2---2---5-27---
2-0---0---5-05---
0---------3------


Massacre Bruin Wacky

Guitar riff's name: Massacre Bruin Wacky
Guitar riff generated on 2020-02-26 10:38:33
This riff is 44 day(s) old.

-----------------
-----------------
-----------------
5-55---7---5-2---
5-55---5---5-2---
3-33-------3-0---


Hiccup Ornithology Tableau Afferent

Guitar riff's name: Hiccup Ornithology Tableau Afferent
Guitar riff generated on 2020-02-26 10:21:30
This riff is 44 day(s) old.

-------------------
-------------------
-------------------
5---2-22-5-4-5-5---
5---0-02-5-2-5-5---
3------0-3---3-3---


Coronach Electronics Commissariat Pitiless

Guitar riff's name: Coronach Electronics Commissariat Pitiless
Guitar riff generated on 2020-02-26 10:16:11
This riff is 44 day(s) old.

-------------------
-------------------
-------------------
42-2-4-7477---72---
22-0-2-5255---52---
-0-------------0---


Flash Reckoning Enzyme

Guitar riff's name: Flash Reckoning Enzyme
Guitar riff generated on 2020-02-26 09:49:12
This riff is 44 day(s) old.

----------------
----------------
----------------
7---2---4---45-7
5---0---2---25-5
-------------3--


Dysprosium Hegemony

Guitar riff's name: Dysprosium Hegemony
Guitar riff generated on 2020-02-26 09:46:50
This riff is 44 day(s) old.

-------------------
-------------------
-------------------
4-24---2-5---2-4---
2-02---2-5---0-2---
-------0-3---------


<< < 1 2 3 4 5 6 7 8 9 [10] 11 12 13 14 15 16 17 18 19 20 > >>