Guitar Riffs Archive

This is an archive of all of the random guitar riffs that this script has ever generated that are archived in the database.


Shrimp Caw Groove

Guitar riff's name: Shrimp Caw Groove
Guitar riff generated on 2020-02-26 08:47:24
This riff is 44 day(s) old.

-----------------
-----------------
-----------------
4---2---5-2-7427-
2---0---5-0-5205-
--------3--------


Bias Courser Outwear

Guitar riff's name: Bias Courser Outwear
Guitar riff generated on 2020-02-26 08:30:07
This riff is 44 day(s) old.

------------------
------------------
------------------
22-72---47---52---
02-50---25---50---
-0-----------3----


Third Tease Rand

Guitar riff's name: Third Tease Rand
Guitar riff generated on 2020-02-26 08:14:08
This riff is 44 day(s) old.

-------------------
-------------------
-------------------
5-44-4-4---2-4-5---
5-22-2-2---0-2-5---
3--------------3---


Uninterested Asparagus Consistency

Guitar riff's name: Uninterested Asparagus Consistency
Guitar riff generated on 2020-02-26 07:41:50
This riff is 44 day(s) old.

-------------------
-------------------
-------------------
4-2---522-22---2---
2-0---502-00---2---
------3-0------0---


Lustral Sorrow Trestle

Guitar riff's name: Lustral Sorrow Trestle
Guitar riff generated on 2020-02-26 07:40:46
This riff is 44 day(s) old.

-------------------
-------------------
-------------------
5-5---7-4-4544-7---
5-5---5-2-2522-5---
3-3--------3-------


Muscatel Dominate

Guitar riff's name: Muscatel Dominate
Guitar riff generated on 2020-02-26 07:29:17
This riff is 44 day(s) old.

----------------
----------------
----------------
472-5-2---4-45-5
252-5-2---2-25-5
--0-3-0------3-3


Warpath Airdrome

Guitar riff's name: Warpath Airdrome
Guitar riff generated on 2020-02-26 07:08:24
This riff is 44 day(s) old.

----------------
----------------
----------------
7-4---7-7---5---
5-2---5-5---5---
------------3---


Slider Celibate

Guitar riff's name: Slider Celibate
Guitar riff generated on 2020-02-26 07:06:57
This riff is 44 day(s) old.

----------------
----------------
----------------
4-2---74-442255-
2-0---52-220055-
-------------33-


Whisker Dunk Unwrap Fixed

Guitar riff's name: Whisker Dunk Unwrap Fixed
Guitar riff generated on 2020-02-26 06:41:23
This riff is 44 day(s) old.

-------------------
-------------------
-------------------
45---5-7---2---4---
25---5-5---2---2---
-3---3-----0-------


Stultify Vulgarize Statistics

Guitar riff's name: Stultify Vulgarize Statistics
Guitar riff generated on 2020-02-26 06:41:15
This riff is 44 day(s) old.

-----------------
-----------------
-----------------
55-2-77---2---52-
55-2-55---2---50-
33-0------0---3--


<< < 1 2 3 4 5 6 7 8 9 10 [11] 12 13 14 15 16 17 18 19 20 21 > >>