Guitar Riffs Archive

This is an archive of all of the random guitar riffs that this script has ever generated that are archived in the database.


Accordingly Yourself Flay

Guitar riff's name: Accordingly Yourself Flay
Guitar riff generated on 2020-02-26 06:40:51
This riff is 95 day(s) old.

------------------
------------------
------------------
2---2---522-2-7---
0---2---502-0-5---
----0---3-0-------


Aglow Chert Angora

Guitar riff's name: Aglow Chert Angora
Guitar riff generated on 2020-02-26 06:40:48
This riff is 95 day(s) old.

----------------
----------------
----------------
47-4---7-5---7-5
25-2---5-5---5-5
---------3-----3


Strung Backbite Worthy Expectation

Guitar riff's name: Strung Backbite Worthy Expectation
Guitar riff generated on 2020-02-26 06:40:28
This riff is 95 day(s) old.

----------------
----------------
----------------
4-2-2---2---2---
2-0-0---2---0---
--------0-------


Hie Peptic

Guitar riff's name: Hie Peptic
Guitar riff generated on 2020-02-26 06:40:14
This riff is 95 day(s) old.

------------------
------------------
------------------
2-5-2---2-7-4-2---
0-5-0---2-5-2-0---
--3-----0---------


Portionless Windlass Ganglion

Guitar riff's name: Portionless Windlass Ganglion
Guitar riff generated on 2020-02-26 06:39:33
This riff is 95 day(s) old.

----------------
----------------
----------------
2---2-4---452---
2---0-2---250---
0----------3----


Appendectomy Rant Malfeasance Flight

Guitar riff's name: Appendectomy Rant Malfeasance Flight
Guitar riff generated on 2020-02-26 06:38:58
This riff is 95 day(s) old.

-----------------
-----------------
-----------------
2-2---54---4---4-
0-2---52---2---2-
--0---3----------


Disrupt Cocoon Bate Architrave

Guitar riff's name: Disrupt Cocoon Bate Architrave
Guitar riff generated on 2020-02-26 06:38:54
This riff is 95 day(s) old.

----------------
----------------
----------------
5---5-4---4---55
5---5-2---2---55
3---3---------33


Irrefragable Whilst

Guitar riff's name: Irrefragable Whilst
Guitar riff generated on 2020-02-26 06:38:12
This riff is 95 day(s) old.

-------------------
-------------------
-------------------
575---2---47---7---
555---2---25---5---
3-3---0------------


Epergne Fingerboard Unadorned Regicide

Guitar riff's name: Epergne Fingerboard Unadorned Regicide
Guitar riff generated on 2020-02-26 06:37:55
This riff is 95 day(s) old.

----------------
----------------
----------------
42-572---4---27-
20-552---2---05-
---3-0----------


Corollary Axletree Figurative Atomic

Guitar riff's name: Corollary Axletree Figurative Atomic
Guitar riff generated on 2020-02-26 06:37:49
This riff is 95 day(s) old.

----------------
----------------
----------------
2---2---2-5-2---
0---0---0-5-0---
----------3-----


<< < 2 3 4 5 6 7 8 9 10 11 [12] 13 14 15 16 17 18 19 20 21 22 > >>