Guitar Riffs Archive

This is an archive of all of the random guitar riffs that this script has ever generated that are archived in the database.


Gamekeeper Amenable

Guitar riff's name: Gamekeeper Amenable
Guitar riff generated on 2020-02-26 06:37:43
This riff is 1576 day(s) old.

----------------
----------------
----------------
2-5-5---42-74---
2-5-5---20-52---
0-3-3-----------


Preoperative Reportedly

Guitar riff's name: Preoperative Reportedly
Guitar riff generated on 2020-02-26 05:53:39
This riff is 1576 day(s) old.

------------------
------------------
------------------
5-5---4---7---5---
5-5---2---5---5---
3-3-----------3---


Future Vicarious Overture Justice

Guitar riff's name: Future Vicarious Overture Justice
Guitar riff generated on 2020-02-26 05:25:47
This riff is 1576 day(s) old.

-------------------
-------------------
-------------------
5---2---7-25-5-5---
5---0---5-05-5-5---
3----------3-3-3---


Solitude Synthetic Canine

Guitar riff's name: Solitude Synthetic Canine
Guitar riff generated on 2020-02-26 05:25:35
This riff is 1576 day(s) old.

------------------
------------------
------------------
5-2-5---5-2---2---
5-2-5---5-2---2---
3-0-3---3-0---0---


Glow Cataclysm Kill

Guitar riff's name: Glow Cataclysm Kill
Guitar riff generated on 2020-02-26 05:24:02
This riff is 1576 day(s) old.

-------------------
-------------------
-------------------
547---7---72---2---
525---5---52---0---
3----------0-------


Infraction Rowel Apathy

Guitar riff's name: Infraction Rowel Apathy
Guitar riff generated on 2020-02-26 04:32:31
This riff is 1576 day(s) old.

------------------
------------------
------------------
4-7---75---52-2---
2-5---55---50-2---
-------3---3--0---


Biogeography Requirement Penalty Aardvark

Guitar riff's name: Biogeography Requirement Penalty Aardvark
Guitar riff generated on 2020-02-26 04:28:52
This riff is 1576 day(s) old.

-----------------
-----------------
-----------------
25---2-527---5---
05---2-505---5---
-3---0-3-----3---


Tractable Melancholia Undershot

Guitar riff's name: Tractable Melancholia Undershot
Guitar riff generated on 2020-02-26 03:03:03
This riff is 1576 day(s) old.

-----------------
-----------------
-----------------
2-2---44-2-4-2---
2-0---22-2-2-2---
0--------0---0---


Chapbook Theology Shore Neuter

Guitar riff's name: Chapbook Theology Shore Neuter
Guitar riff generated on 2020-02-26 02:47:32
This riff is 1576 day(s) old.

------------------
------------------
------------------
7---72-4---52-4---
5---52-2---52-2---
-----0-----30-----


Neoclassic Beshrew Armature Cinematograph

Guitar riff's name: Neoclassic Beshrew Armature Cinematograph
Guitar riff generated on 2020-02-26 02:20:58
This riff is 1576 day(s) old.

----------------
----------------
----------------
4---7---7-554-7-
2---5---5-552-5-
----------33----


<< < 3 4 5 6 7 8 9 10 11 12 [13] 14 15 16 17 18 19 20 21 22 23 > >>