Guitar Riffs Archive

This is an archive of all of the random guitar riffs that this script has ever generated that are archived in the database.


Oxyacetylene Debility Wolfsbane Licentious

Guitar riff's name: Oxyacetylene Debility Wolfsbane Licentious
Guitar riff generated on 2020-02-26 02:20:17
This riff is 1611 day(s) old.

----------------
----------------
----------------
2-4-7-4---7---2-
0-2-5-2---5---2-
--------------0-


Snowplow Penultimate Sometime

Guitar riff's name: Snowplow Penultimate Sometime
Guitar riff generated on 2020-02-26 02:19:51
This riff is 1611 day(s) old.

-------------------
-------------------
-------------------
2-2-2---2-2-47-5---
2-0-0---0-0-25-5---
0--------------3---


Proboscis Predacious Cuckoo Sirocco

Guitar riff's name: Proboscis Predacious Cuckoo Sirocco
Guitar riff generated on 2020-02-26 01:56:23
This riff is 1611 day(s) old.

------------------
------------------
------------------
4---4-75---44-7---
2---2-55---22-5---
-------3----------


Unsaved Coeval

Guitar riff's name: Unsaved Coeval
Guitar riff generated on 2020-02-26 01:50:32
This riff is 1611 day(s) old.

------------------
------------------
------------------
42-42---7-2---2---
22-22---5-0---0---
-0--0-------------


Trod Prefigure

Guitar riff's name: Trod Prefigure
Guitar riff generated on 2020-02-26 01:50:05
This riff is 1611 day(s) old.

-----------------
-----------------
-----------------
5---25---2---2---
5---05---0---0---
3----3-----------


Sue Quadrilateral Circumcise Apology

Guitar riff's name: Sue Quadrilateral Circumcise Apology
Guitar riff generated on 2020-02-26 01:36:25
This riff is 1611 day(s) old.

----------------
----------------
----------------
2---2---52-7-75-
2---2---50-5-55-
0---0---3-----3-


Be Judicial

Guitar riff's name: Be Judicial
Guitar riff generated on 2020-02-25 23:36:55
This riff is 1612 day(s) old.

-------------------
-------------------
-------------------
24-2---7-4-2---2---
02-2---5-2-0---2---
---0-----------0---


Tardy Kebab Latrine Patty

Guitar riff's name: Tardy Kebab Latrine Patty
Guitar riff generated on 2020-02-25 23:21:52
This riff is 1612 day(s) old.

------------------
------------------
------------------
5---2-57-2---72---
5---2-55-0---52---
3---0-3-------0---


Cringe Retrograde

Guitar riff's name: Cringe Retrograde
Guitar riff generated on 2020-02-25 23:21:22
This riff is 1612 day(s) old.

------------------
------------------
------------------
2---2-7-254---7---
2---2-5-052---5---
0---0----3--------


Flowerpot Scarab

Guitar riff's name: Flowerpot Scarab
Guitar riff generated on 2020-02-25 23:21:00
This riff is 1612 day(s) old.

-----------------
-----------------
-----------------
2-4---4---4-72-2-
0-2---2---2-50-0-
-----------------


<< < 4 5 6 7 8 9 10 11 12 13 [14] 15 16 17 18 19 20 21 22 23 24 > >>