Guitar Riffs Archive

This is an archive of all of the random guitar riffs that this script has ever generated that are archived in the database.


Sanguine Remonstrate Lonesome

Guitar riff's name: Sanguine Remonstrate Lonesome
Guitar riff generated on 2020-02-25 23:16:06
This riff is 1577 day(s) old.

------------------
------------------
------------------
5---7---55---42---
5---5---55---20---
3-------33--------


Wildfowl Shed Fatal

Guitar riff's name: Wildfowl Shed Fatal
Guitar riff generated on 2020-02-25 23:10:15
This riff is 1577 day(s) old.

------------------
------------------
------------------
7---744---24-52---
5---522---02-52---
-------------30---


Secrete Phalanx Moat Feed

Guitar riff's name: Secrete Phalanx Moat Feed
Guitar riff generated on 2020-02-25 23:10:10
This riff is 1577 day(s) old.

----------------
----------------
----------------
2-7-25---2-7---7
0-5-05---0-5---5
-----3----------


Bosom Excitement

Guitar riff's name: Bosom Excitement
Guitar riff generated on 2020-02-25 23:01:58
This riff is 1577 day(s) old.

-----------------
-----------------
-----------------
5-4-42-5---2---2-
5-2-20-5---0---2-
3------3-------0-


Delicate Anklet Extemporary Midstream

Guitar riff's name: Delicate Anklet Extemporary Midstream
Guitar riff generated on 2020-02-25 22:48:30
This riff is 1577 day(s) old.

----------------
----------------
----------------
2-747---2---4---
2-525---0---2---
0---------------


Incense Desultory Romanticism Overbearing

Guitar riff's name: Incense Desultory Romanticism Overbearing
Guitar riff generated on 2020-02-25 22:38:39
This riff is 1577 day(s) old.

----------------
----------------
----------------
2-2-5-5-2---5---
0-2-5-5-0---5---
--0-3-3-----3---


Shrub Hop Cesspool

Guitar riff's name: Shrub Hop Cesspool
Guitar riff generated on 2020-02-25 22:35:13
This riff is 1577 day(s) old.

-----------------
-----------------
-----------------
22---2---7---5---
00---0---5---5---
-------------3---


Forequarter Stare Storehouse Pul

Guitar riff's name: Forequarter Stare Storehouse Pul
Guitar riff generated on 2020-02-25 22:28:50
This riff is 1577 day(s) old.

-----------------
-----------------
-----------------
5-2---2---5-54-2-
5-0---0---5-52-0-
3---------3-3----


Delay Globe Gild

Guitar riff's name: Delay Globe Gild
Guitar riff generated on 2020-02-25 22:28:36
This riff is 1577 day(s) old.

----------------
----------------
----------------
2---72---5---77-
0---50---5---55-
---------3------


Commodore Incorrect Watt

Guitar riff's name: Commodore Incorrect Watt
Guitar riff generated on 2020-02-25 22:28:25
This riff is 1577 day(s) old.

-------------------
-------------------
-------------------
2---4---4-5-2752---
2---2---2-5-0552---
0---------3---30---


<< < 5 6 7 8 9 10 11 12 13 14 [15] 16 17 18 19 20 21 22 23 24 25 > >>