Guitar Riffs Archive

This is an archive of all of the random guitar riffs that this script has ever generated that are archived in the database.


Nowadays Task Birdseed Proffer

Guitar riff's name: Nowadays Task Birdseed Proffer
Guitar riff generated on 2020-02-25 22:04:05
This riff is 1612 day(s) old.

----------------
----------------
----------------
7-2---7-2-75---7
5-2---5-0-55---5
--0--------3----


Moo Inmate

Guitar riff's name: Moo Inmate
Guitar riff generated on 2020-02-25 21:51:14
This riff is 1612 day(s) old.

------------------
------------------
------------------
2---4-2---4-2-2---
0---2-2---2-0-2---
------0-------0---


Geld Raw Inherent Subsidiary

Guitar riff's name: Geld Raw Inherent Subsidiary
Guitar riff generated on 2020-02-25 21:50:03
This riff is 1612 day(s) old.

-----------------
-----------------
-----------------
5---7---55-2---5-
5---5---55-2---5-
3-------33-0---3-


Refurbish Weekday Clank Film

Guitar riff's name: Refurbish Weekday Clank Film
Guitar riff generated on 2020-02-25 21:09:06
This riff is 1612 day(s) old.

-----------------
-----------------
-----------------
52-7-42-77---5---
50-5-22-55---5---
3-----0------3---


Commode Doubleheader Tubule

Guitar riff's name: Commode Doubleheader Tubule
Guitar riff generated on 2020-02-25 21:08:24
This riff is 1612 day(s) old.

-----------------
-----------------
-----------------
2---5-7---7275---
2---5-5---5055---
0---3--------3---


Ripe Gunshot

Guitar riff's name: Ripe Gunshot
Guitar riff generated on 2020-02-25 20:55:10
This riff is 1612 day(s) old.

-----------------
-----------------
-----------------
4---7---57---7---
2---5---55---5---
--------3--------


Except Admiral Groundling Habitue

Guitar riff's name: Except Admiral Groundling Habitue
Guitar riff generated on 2020-02-25 20:55:08
This riff is 1612 day(s) old.

------------------
------------------
------------------
7---2-7-252---7---
5---0-5-052---5---
---------30-------


Bushing Brevity Equerry

Guitar riff's name: Bushing Brevity Equerry
Guitar riff generated on 2020-02-25 20:14:55
This riff is 1612 day(s) old.

------------------
------------------
------------------
7---5---4-7---4---
5---5---2-5---2---
----3-------------


Lighthearted Rodeo Hardback Papillote

Guitar riff's name: Lighthearted Rodeo Hardback Papillote
Guitar riff generated on 2020-02-25 20:14:47
This riff is 1612 day(s) old.

-----------------
-----------------
-----------------
2-54-75---2---27-
2-52-55---2---05-
0-3---3---0------


Cathedral Onset Organism Valiant

Guitar riff's name: Cathedral Onset Organism Valiant
Guitar riff generated on 2020-02-25 20:03:30
This riff is 1612 day(s) old.

----------------
----------------
----------------
5-2---27-45---42
5-0---05-25---20
3---------3-----


<< < 6 7 8 9 10 11 12 13 14 15 [16] 17 18 19 20 21 22 23 24 25 26 > >>