Guitar Riffs Archive

This is an archive of all of the random guitar riffs that this script has ever generated that are archived in the database.


Flashing Ground Transom

Guitar riff's name: Flashing Ground Transom
Guitar riff generated on 2020-02-25 19:59:51
This riff is 1577 day(s) old.

-----------------
-----------------
-----------------
274---52---4---2-
052---52---2---2-
------30-------0-


Resemble Chock Wrongheaded

Guitar riff's name: Resemble Chock Wrongheaded
Guitar riff generated on 2020-02-25 19:59:24
This riff is 1577 day(s) old.

----------------
----------------
----------------
5-5-2-4---22---4
5-5-0-2---00---2
3-3-------------


Financier Incorruptible Chloroform Threshold

Guitar riff's name: Financier Incorruptible Chloroform Threshold
Guitar riff generated on 2020-02-25 19:52:46
This riff is 1577 day(s) old.

----------------
----------------
----------------
7---4---5---2---
5---2---5---0---
--------3-------


Prostrate Less

Guitar riff's name: Prostrate Less
Guitar riff generated on 2020-02-25 19:52:02
This riff is 1577 day(s) old.

----------------
----------------
----------------
4-7---2---7---54
2-5---2---5---52
------0-------3-


Byway Confirmation Dander

Guitar riff's name: Byway Confirmation Dander
Guitar riff generated on 2020-02-25 18:36:04
This riff is 1577 day(s) old.

-----------------
-----------------
-----------------
72-5---2-42-2-77-
50-5---0-20-0-55-
---3-------------


Watery Amphibious Pimiento

Guitar riff's name: Watery Amphibious Pimiento
Guitar riff generated on 2020-02-25 18:10:07
This riff is 1577 day(s) old.

----------------
----------------
----------------
75---52-5---7---
55---50-5---5---
-3---3--3-------


Cropland Study Noteworthy

Guitar riff's name: Cropland Study Noteworthy
Guitar riff generated on 2020-02-25 17:47:30
This riff is 1577 day(s) old.

----------------
----------------
----------------
5-2---4---5-2-2-
5-0---2---5-0-0-
3---------3-----


Whosoever Unkind Gentlewoman Monody

Guitar riff's name: Whosoever Unkind Gentlewoman Monody
Guitar riff generated on 2020-02-25 17:47:23
This riff is 1577 day(s) old.

-------------------
-------------------
-------------------
2---2-74---2---7---
2---0-52---0---5---
0------------------


Classroom Spool

Guitar riff's name: Classroom Spool
Guitar riff generated on 2020-02-25 17:47:15
This riff is 1577 day(s) old.

-----------------
-----------------
-----------------
22-4---2-5-7---5-
00-2---0-5-5---5-
---------3-----3-


Urge Artiste Foil Dog

Guitar riff's name: Urge Artiste Foil Dog
Guitar riff generated on 2020-02-25 17:38:04
This riff is 1577 day(s) old.

-----------------
-----------------
-----------------
7---5---2-4-45---
5---5---0-2-25---
----3--------3---


<< < 7 8 9 10 11 12 13 14 15 16 [17] 18 19 20 21 22 23 24 25 26 27 > >>