Guitar Riffs Archive

This is an archive of all of the random guitar riffs that this script has ever generated that are archived in the database.


Adorable Burr Literary Debt

Guitar riff's name: Adorable Burr Literary Debt
Guitar riff generated on 2020-02-25 17:38:02
This riff is 1612 day(s) old.

-----------------
-----------------
-----------------
75---4-4-5---2-2-
55---2-2-5---0-2-
-3-------3-----0-


Ditch Mammary Suffuse Unbidden

Guitar riff's name: Ditch Mammary Suffuse Unbidden
Guitar riff generated on 2020-02-25 17:32:24
This riff is 1612 day(s) old.

----------------
----------------
----------------
5-2---2-7---2---
5-0---2-5---2---
3-----0-----0---


Hackman Competent Bridgehead Besiege

Guitar riff's name: Hackman Competent Bridgehead Besiege
Guitar riff generated on 2020-02-25 16:57:45
This riff is 1612 day(s) old.

----------------
----------------
----------------
55---25---2-5---
55---05---2-5---
33----3---0-3---


Americium Smock

Guitar riff's name: Americium Smock
Guitar riff generated on 2020-02-25 16:57:42
This riff is 1612 day(s) old.

------------------
------------------
------------------
7---45---52-4-5---
5---25---50-2-5---
-----3---3----3---


Wharf Denim Maybe

Guitar riff's name: Wharf Denim Maybe
Guitar riff generated on 2020-02-25 16:54:13
This riff is 1612 day(s) old.

----------------
----------------
----------------
2---2-7-75---57-
0---2-5-55---55-
----0----3---3--


Pheasant Miscount Kilter Flick

Guitar riff's name: Pheasant Miscount Kilter Flick
Guitar riff generated on 2020-02-25 16:53:47
This riff is 1612 day(s) old.

----------------
----------------
----------------
25---4---4---2-4
05---2---2---2-2
-3-----------0--


Countinghouse Countless Unshod

Guitar riff's name: Countinghouse Countless Unshod
Guitar riff generated on 2020-02-25 16:53:07
This riff is 1612 day(s) old.

----------------
----------------
----------------
7-2-5---2---2-4-
5-2-5---2---2-2-
--0-3---0---0---


Greenery Blackamoor

Guitar riff's name: Greenery Blackamoor
Guitar riff generated on 2020-02-25 16:35:05
This riff is 1612 day(s) old.

-----------------
-----------------
-----------------
2-7---4---2-45---
0-5---2---0-25---
-------------3---


Wicket Federation

Guitar riff's name: Wicket Federation
Guitar riff generated on 2020-02-25 15:54:06
This riff is 1612 day(s) old.

-----------------
-----------------
-----------------
4---7-45-5-7---7-
2---5-25-5-5---5-
-------3-3-------


Moot Figurehead

Guitar riff's name: Moot Figurehead
Guitar riff generated on 2020-02-25 15:54:04
This riff is 1612 day(s) old.

------------------
------------------
------------------
2-7---7-22---55---
0-5---5-00---55---
-------------33---


<< < 8 9 10 11 12 13 14 15 16 17 [18] 19 20 21 22 23 24 25 26 27 28 > >>