Guitar Riffs Archive

This is an archive of all of the random guitar riffs that this script has ever generated that are archived in the database.


Pebble Astrakhan

Guitar riff's name: Pebble Astrakhan
Guitar riff generated on 2020-02-25 14:56:52
This riff is 1461 day(s) old.

-----------------
-----------------
-----------------
542-45---7---7---
522-25---5---5---
3-0--3-----------


Gestation Convent Uncanny

Guitar riff's name: Gestation Convent Uncanny
Guitar riff generated on 2020-02-25 14:43:33
This riff is 1461 day(s) old.

------------------
------------------
------------------
75---2---5-2-72---
55---2---5-2-50---
-3---0---3-0------


Serried Echelon Paisley

Guitar riff's name: Serried Echelon Paisley
Guitar riff generated on 2020-02-25 14:42:11
This riff is 1461 day(s) old.

-----------------
-----------------
-----------------
2---7---5-52---2-
0---5---5-52---0-
--------3-30-----


Touching Market Slain

Guitar riff's name: Touching Market Slain
Guitar riff generated on 2020-02-25 14:42:09
This riff is 1461 day(s) old.

-------------------
-------------------
-------------------
75-2---74575---2---
55-2---52555---2---
-3-0-----3-3---0---


Pitcher Shrubbery

Guitar riff's name: Pitcher Shrubbery
Guitar riff generated on 2020-02-25 14:16:51
This riff is 1461 day(s) old.

----------------
----------------
----------------
4-2-754---72---2
2-0-552---52---0
-----3-----0----


Headgear Undertow

Guitar riff's name: Headgear Undertow
Guitar riff generated on 2020-02-25 14:07:41
This riff is 1461 day(s) old.

-----------------
-----------------
-----------------
5---54772---57---
5---52550---55---
3---3-------3----


Briquette Diner Intangible Surrey

Guitar riff's name: Briquette Diner Intangible Surrey
Guitar riff generated on 2020-02-25 14:07:40
This riff is 1461 day(s) old.

------------------
------------------
------------------
22-4---4-2-22-5---
00-2---2-2-02-5---
---------0--0-3---


Imagine Congeries

Guitar riff's name: Imagine Congeries
Guitar riff generated on 2020-02-25 14:07:37
This riff is 1461 day(s) old.

----------------
----------------
----------------
5-5---7---722---
5-5---5---500---
3-3-------------


Scatter Footlocker

Guitar riff's name: Scatter Footlocker
Guitar riff generated on 2020-02-25 14:07:33
This riff is 1461 day(s) old.

----------------
----------------
----------------
4-2---4---5-52-5
2-2---2---5-50-5
--0-------3-3--3


Lollipop Delectable Folklore

Guitar riff's name: Lollipop Delectable Folklore
Guitar riff generated on 2020-02-25 13:56:14
This riff is 1461 day(s) old.

----------------
----------------
----------------
5-75-522---4-22-
5-55-500---2-02-
3--3-3--------0-


<< < 10 11 12 13 14 15 16 17 18 19 [20] 21 22 23 24 25 26 27 28 29 30 > >>