Guitar Riffs Archive

This is an archive of all of the random guitar riffs that this script has ever generated that are archived in the database.


Pencil Hail

Guitar riff's name: Pencil Hail
Guitar riff generated on 2020-02-25 12:20:48
This riff is 1552 day(s) old.

----------------
----------------
----------------
2-2-7-4-4-752---
2-2-5-2-2-550---
0-0--------3----


Acolyte Petard Attraction

Guitar riff's name: Acolyte Petard Attraction
Guitar riff generated on 2020-02-25 12:17:07
This riff is 1552 day(s) old.

----------------
----------------
----------------
75-7-2-5---52---
55-5-0-5---50---
-3-----3---3----


Midget Humiliate Henchman

Guitar riff's name: Midget Humiliate Henchman
Guitar riff generated on 2020-02-25 12:02:50
This riff is 1552 day(s) old.

----------------
----------------
----------------
7-4-2---2---5-2-
5-2-2---0---5-0-
----0-------3---


Recognize Lower Weaponless Possession

Guitar riff's name: Recognize Lower Weaponless Possession
Guitar riff generated on 2020-02-25 11:42:47
This riff is 1552 day(s) old.

-----------------
-----------------
-----------------
2---2-2-44-772---
2---0-0-22-550---
0----------------


Bethink Portray United

Guitar riff's name: Bethink Portray United
Guitar riff generated on 2020-02-25 11:20:26
This riff is 1552 day(s) old.

----------------
----------------
----------------
5-7---5---4-2---
5-5---5---2-2---
3-----3-----0---


Interment Unmanned Dilute Outfight

Guitar riff's name: Interment Unmanned Dilute Outfight
Guitar riff generated on 2020-02-25 11:20:04
This riff is 1552 day(s) old.

----------------
----------------
----------------
5---5-5---5-2---
5---5-5---5-2---
3---3-3---3-0---


Matchwood Lagniappe Turbulent

Guitar riff's name: Matchwood Lagniappe Turbulent
Guitar riff generated on 2020-02-25 11:19:16
This riff is 1552 day(s) old.

-----------------
-----------------
-----------------
42-52-72---5---2-
22-50-52---5---0-
-0-3---0---3-----


Inner Brooch Proton Hotshot

Guitar riff's name: Inner Brooch Proton Hotshot
Guitar riff generated on 2020-02-25 10:38:57
This riff is 1552 day(s) old.

------------------
------------------
------------------
2-2---224-4---2---
2-0---002-2---2---
0-------------0---


Disillusion Mistake

Guitar riff's name: Disillusion Mistake
Guitar riff generated on 2020-02-25 10:38:27
This riff is 1552 day(s) old.

----------------
----------------
----------------
2---7-2---4---2-
2---5-0---2---0-
0---------------


Viscose Thirst Asexual Bulge

Guitar riff's name: Viscose Thirst Asexual Bulge
Guitar riff generated on 2020-02-25 10:38:15
This riff is 1552 day(s) old.

----------------
----------------
----------------
2-2-2-2422---2-7
0-0-2-0202---0-5
----0----0------


<< < 11 12 13 14 15 16 17 18 19 20 [21] 22 23 24 25 26 27 28 29 30 31 > >>