Guitar Riffs Archive

This is an archive of all of the random guitar riffs that this script has ever generated that are archived in the database.


Court Nub Mismanage Shed

Guitar riff's name: Court Nub Mismanage Shed
Guitar riff generated on 2020-02-25 10:35:00
This riff is 1381 day(s) old.

------------------
------------------
------------------
77---2---5-7-24---
55---0---5-5-02---
---------3--------


Nelson Converge Pit Paring

Guitar riff's name: Nelson Converge Pit Paring
Guitar riff generated on 2020-02-25 10:09:51
This riff is 1381 day(s) old.

-----------------
-----------------
-----------------
54-5---7---2---5-
52-5---5---0---5-
3--3-----------3-


Banyan Stop Potboy Hinder

Guitar riff's name: Banyan Stop Potboy Hinder
Guitar riff generated on 2020-02-25 10:00:54
This riff is 1381 day(s) old.

----------------
----------------
----------------
54---52-7---4---
52---52-5---2---
3----30---------


Discuss Wen Ticket Prattle

Guitar riff's name: Discuss Wen Ticket Prattle
Guitar riff generated on 2020-02-25 09:36:39
This riff is 1381 day(s) old.

----------------
----------------
----------------
2-2-752---72---4
0-0-550---50---2
-----3----------


Jail Endmost

Guitar riff's name: Jail Endmost
Guitar riff generated on 2020-02-25 09:29:22
This riff is 1381 day(s) old.

----------------
----------------
----------------
5-5---4---57---7
5-5---2---55---5
3-3-------3-----


Implacable Cantabile O Outwit

Guitar riff's name: Implacable Cantabile O Outwit
Guitar riff generated on 2020-02-25 09:23:03
This riff is 1381 day(s) old.

----------------
----------------
----------------
77---5-2---4522-
55---5-0---2500-
-----3------3---


Ascent Indoctrinate Climate

Guitar riff's name: Ascent Indoctrinate Climate
Guitar riff generated on 2020-02-25 09:23:02
This riff is 1381 day(s) old.

----------------
----------------
----------------
2-4-2---27---47-
2-2-0---05---25-
0---------------


Drawback Convoy

Guitar riff's name: Drawback Convoy
Guitar riff generated on 2020-02-25 09:22:57
This riff is 1381 day(s) old.

-----------------
-----------------
-----------------
55---2---5-452-4-
55---2---5-252-2-
33---0---3--30---


Hypersonic Elbowroom Overplay

Guitar riff's name: Hypersonic Elbowroom Overplay
Guitar riff generated on 2020-02-25 08:26:33
This riff is 1381 day(s) old.

----------------
----------------
----------------
55-7-5-7-4-5---2
55-5-5-5-2-5---0
33---3-----3----


Veteran Liter

Guitar riff's name: Veteran Liter
Guitar riff generated on 2020-02-25 08:26:31
This riff is 1381 day(s) old.

-----------------
-----------------
-----------------
2-2---2-75---7---
2-0---2-55---5---
0-----0--3-------


<< < 12 13 14 15 16 17 18 19 20 21 [22] 23 24 25 26 27 28 29 30 31 32 > >>