Guitar Riffs Archive

This is an archive of all of the random guitar riffs that this script has ever generated that are archived in the database.


Forevermore Depose Gestation Sacrosanct

Guitar riff's name: Forevermore Depose Gestation Sacrosanct
Guitar riff generated on 2020-02-25 08:17:55
This riff is 1461 day(s) old.

-----------------
-----------------
-----------------
54-5---45-57---2-
52-5---25-55---2-
3--3----3-3----0-


Attraction Lethargy

Guitar riff's name: Attraction Lethargy
Guitar riff generated on 2020-02-25 07:32:50
This riff is 1461 day(s) old.

-------------------
-------------------
-------------------
77-2455-2-42---4---
55-0255-0-22---2---
-----33----0-------


Crooked Sclerosis

Guitar riff's name: Crooked Sclerosis
Guitar riff generated on 2020-02-25 07:21:40
This riff is 1461 day(s) old.

----------------
----------------
----------------
4---45---72---42
2---25---50---20
-----3----------


Scripture Longueur

Guitar riff's name: Scripture Longueur
Guitar riff generated on 2020-02-25 07:01:18
This riff is 1461 day(s) old.

-----------------
-----------------
-----------------
5-2---2-27-2-2---
5-0---0-05-0-0---
3----------------


Conflict Number Sojourn

Guitar riff's name: Conflict Number Sojourn
Guitar riff generated on 2020-02-25 06:13:20
This riff is 1461 day(s) old.

-------------------
-------------------
-------------------
7---2---2---52-7---
5---0---2---50-5---
--------0---3------


Nonstop Cessation Instead

Guitar riff's name: Nonstop Cessation Instead
Guitar riff generated on 2020-02-25 06:01:29
This riff is 1461 day(s) old.

----------------
----------------
----------------
2---4---2---4-2-
0---2---2---2-2-
--------0-----0-


Wry Burgess Thready Landslide

Guitar riff's name: Wry Burgess Thready Landslide
Guitar riff generated on 2020-02-25 05:49:10
This riff is 1461 day(s) old.

----------------
----------------
----------------
247---2-5---2-2-
025---2-5---0-2-
------0-3-----0-


Getaway Twine Impropriety

Guitar riff's name: Getaway Twine Impropriety
Guitar riff generated on 2020-02-25 05:39:05
This riff is 1461 day(s) old.

----------------
----------------
----------------
45---7---2-52---
25---5---2-50---
-3-------0-3----


Firedog Rutabaga Whereby Gear

Guitar riff's name: Firedog Rutabaga Whereby Gear
Guitar riff generated on 2020-02-25 05:39:03
This riff is 1461 day(s) old.

----------------
----------------
----------------
22-7-54---2-2-5-
00-5-52---0-0-5-
-----3--------3-


Bewilder Auction Macrocosm

Guitar riff's name: Bewilder Auction Macrocosm
Guitar riff generated on 2020-02-25 05:27:12
This riff is 1461 day(s) old.

----------------
----------------
----------------
5-5-52-7-5-72-4-
5-5-50-5-5-52-2-
3-3-3----3--0---


<< < 13 14 15 16 17 18 19 20 21 22 [23] 24 25 26 27 28 29 30 31 32 33 > >>