Guitar Riffs Archive

This is an archive of all of the random guitar riffs that this script has ever generated that are archived in the database.


Moldboard Ennoble

Guitar riff's name: Moldboard Ennoble
Guitar riff generated on 2020-02-25 05:13:33
This riff is 1461 day(s) old.

----------------
----------------
----------------
5-2---2-4-542-5-
5-2---0-2-522-5-
3-0-------3-0-3-


Delegation Operetta Confusion Coerce

Guitar riff's name: Delegation Operetta Confusion Coerce
Guitar riff generated on 2020-02-25 05:08:54
This riff is 1461 day(s) old.

------------------
------------------
------------------
2---7---2-2---2---
0---5---2-2---2---
--------0-0---0---


Weathertight Sheepish Depression

Guitar riff's name: Weathertight Sheepish Depression
Guitar riff generated on 2020-02-25 05:08:12
This riff is 1461 day(s) old.

------------------
------------------
------------------
57-7---4-575-22---
55-5---2-555-00---
3--------3-3------


Seedtime Steady Pastry Fretwork

Guitar riff's name: Seedtime Steady Pastry Fretwork
Guitar riff generated on 2020-02-25 05:07:34
This riff is 1461 day(s) old.

-----------------
-----------------
-----------------
7-2-54-572---5---
5-2-52-552---5---
--0-3--3-0---3---


Gusset Picnic

Guitar riff's name: Gusset Picnic
Guitar riff generated on 2020-02-25 05:07:24
This riff is 1461 day(s) old.

----------------
----------------
----------------
5---2-54-4-55---
5---0-52-2-55---
3-----3----33---


Unborn Seafarer

Guitar riff's name: Unborn Seafarer
Guitar riff generated on 2020-02-25 05:00:11
This riff is 1461 day(s) old.

-------------------
-------------------
-------------------
75-272-2-4-74-47---
55-050-0-2-52-25---
-3-----------------


Pad Immune

Guitar riff's name: Pad Immune
Guitar riff generated on 2020-02-25 04:50:59
This riff is 1461 day(s) old.

----------------
----------------
----------------
527---4-7-7-2---
505---2-5-5-0---
3---------------


Fetlock Portfolio Deleterious Chief

Guitar riff's name: Fetlock Portfolio Deleterious Chief
Guitar riff generated on 2020-02-25 04:27:24
This riff is 1461 day(s) old.

----------------
----------------
----------------
274-5---275---2-
052-5---055---2-
----3-----3---0-


Phaeton Pickerel Subtile Testimonial

Guitar riff's name: Phaeton Pickerel Subtile Testimonial
Guitar riff generated on 2020-02-25 04:26:26
This riff is 1461 day(s) old.

------------------
------------------
------------------
2-2-2---5---242---
0-0-2---5---020---
----0---3---------


Beguine Sol Accompaniment

Guitar riff's name: Beguine Sol Accompaniment
Guitar riff generated on 2020-02-25 02:42:18
This riff is 1461 day(s) old.

------------------
------------------
------------------
2---74-574---44---
0---52-552---22---
-------3----------


<< < 14 15 16 17 18 19 20 21 22 23 [24] 25 26 27 28 29 30 31 32 33 34 > >>