Guitar Riffs Archive

This is an archive of all of the random guitar riffs that this script has ever generated that are archived in the database.


Scabbard Wafer Pie

Guitar riff's name: Scabbard Wafer Pie
Guitar riff generated on 2020-02-24 23:18:40
This riff is 1613 day(s) old.

----------------
----------------
----------------
2-2-7---4---2-5-
0-0-5---2---2-5-
------------0-3-


Filtrate Crotchet Associative

Guitar riff's name: Filtrate Crotchet Associative
Guitar riff generated on 2020-02-24 23:17:04
This riff is 1613 day(s) old.

-------------------
-------------------
-------------------
5---25---4---2-4---
5---05---2---2-2---
3----3-------0-----


Quack Frieze Correlative Grotto

Guitar riff's name: Quack Frieze Correlative Grotto
Guitar riff generated on 2020-02-24 23:15:25
This riff is 1613 day(s) old.

-------------------
-------------------
-------------------
2---5---2-57-2-7---
2---5---2-55-2-5---
0---3---0-3--0-----


Civics Surgery Unshackle Commissariat

Guitar riff's name: Civics Surgery Unshackle Commissariat
Guitar riff generated on 2020-02-24 23:15:09
This riff is 1613 day(s) old.

----------------
----------------
----------------
2---4---22-44---
2---2---00-22---
0---------------


Auld Colorfast Backspin Stroboscope

Guitar riff's name: Auld Colorfast Backspin Stroboscope
Guitar riff generated on 2020-02-24 23:15:05
This riff is 1613 day(s) old.

-------------------
-------------------
-------------------
52---2---2-224-4---
50---2---2-002-2---
3----0---0---------


Antibiotic Year

Guitar riff's name: Antibiotic Year
Guitar riff generated on 2020-02-24 23:14:59
This riff is 1613 day(s) old.

-------------------
-------------------
-------------------
544722-7---5---5---
522502-5---5---5---
3----0-----3---3---


Aviation Agrarian

Guitar riff's name: Aviation Agrarian
Guitar riff generated on 2020-02-24 23:13:49
This riff is 1613 day(s) old.

------------------
------------------
------------------
4-2---522---5-5---
2-2---500---5-5---
--0---3-----3-3---


Whisper Plating Visitant

Guitar riff's name: Whisper Plating Visitant
Guitar riff generated on 2020-02-24 23:12:18
This riff is 1613 day(s) old.

-------------------
-------------------
-------------------
2---52-5---7---2---
0---52-5---5---0---
----30-3-----------


Ironwork Chert

Guitar riff's name: Ironwork Chert
Guitar riff generated on 2020-02-24 23:06:47
This riff is 1613 day(s) old.

----------------
----------------
----------------
4---52-27---4-7-
2---50-05---2-5-
----3-----------


Lavaliere Roadway

Guitar riff's name: Lavaliere Roadway
Guitar riff generated on 2020-02-24 23:06:22
This riff is 1613 day(s) old.

-----------------
-----------------
-----------------
27-24-7-22-5-2-7-
05-02-5-02-5-2-5-
---------0-3-0---


<< < 16 17 18 19 20 21 22 23 24 25 [26] 27 28 29 30 31 32 33 34 35 36 > >>