Guitar Riffs Archive

This is an archive of all of the random guitar riffs that this script has ever generated that are archived in the database.


Obstacle Field Markdown Maxilla

Guitar riff's name: Obstacle Field Markdown Maxilla
Guitar riff generated on 2020-02-24 20:54:36
This riff is 1578 day(s) old.

----------------
----------------
----------------
5-4-2-42---4---2
5-2-0-20---2---0
3---------------


Oddity Ape Predecessor

Guitar riff's name: Oddity Ape Predecessor
Guitar riff generated on 2020-02-24 20:48:15
This riff is 1578 day(s) old.

-----------------
-----------------
-----------------
22-7---2---2-2---
00-5---0---0-2---
-------------0---


Dismal Drug Saliva

Guitar riff's name: Dismal Drug Saliva
Guitar riff generated on 2020-02-24 20:47:02
This riff is 1578 day(s) old.

----------------
----------------
----------------
2---7---4-2---2-
2---5---2-2---0-
0---------0-----


Deaf Nay

Guitar riff's name: Deaf Nay
Guitar riff generated on 2020-02-24 20:46:21
This riff is 1578 day(s) old.

----------------
----------------
----------------
5---2---2---2-72
5---2---0---0-50
3---0-----------


Fable Extrovert

Guitar riff's name: Fable Extrovert
Guitar riff generated on 2020-02-24 20:34:40
This riff is 1578 day(s) old.

----------------
----------------
----------------
4---4---5-2-7254
2---2---5-0-5052
--------3-----3-


Escalator Headstone Contumacious Literate

Guitar riff's name: Escalator Headstone Contumacious Literate
Guitar riff generated on 2020-02-24 20:30:06
This riff is 1578 day(s) old.

----------------
----------------
----------------
4-57-2-77---4---
2-55-0-55---2---
--3-------------


Arson Literati Tumor

Guitar riff's name: Arson Literati Tumor
Guitar riff generated on 2020-02-24 20:29:37
This riff is 1578 day(s) old.

-----------------
-----------------
-----------------
45---2---57---55-
25---0---55---55-
-3-------3----33-


Banderole Housewife Taboo

Guitar riff's name: Banderole Housewife Taboo
Guitar riff generated on 2020-02-24 20:29:25
This riff is 1578 day(s) old.

------------------
------------------
------------------
2---5-425-4---2---
0---5-205-2---0---
----3---3---------


Centenary Wine Pastel

Guitar riff's name: Centenary Wine Pastel
Guitar riff generated on 2020-02-24 20:21:09
This riff is 1578 day(s) old.

------------------
------------------
------------------
2---2-5-2---5-7---
0---2-5-2---5-5---
----0-3-0---3-----


Inculpate Period Behavior

Guitar riff's name: Inculpate Period Behavior
Guitar riff generated on 2020-02-24 20:17:26
This riff is 1578 day(s) old.

-----------------
-----------------
-----------------
2---55---7-2-2---
2---55---5-2-2---
0---33-----0-0---


<< < 18 19 20 21 22 23 24 25 26 27 [28] 29 30 31 32 33 34 35 36 37 38 > >>