Guitar Riffs Archive

This is an archive of all of the random guitar riffs that this script has ever generated that are archived in the database.


Immure Waxen

Guitar riff's name: Immure Waxen
Guitar riff generated on 2020-02-24 19:38:44
This riff is 1578 day(s) old.

-------------------
-------------------
-------------------
4---5---7---22-5---
2---5---5---02-5---
----3--------0-3---


Declivity Telltale

Guitar riff's name: Declivity Telltale
Guitar riff generated on 2020-02-24 19:38:01
This riff is 1578 day(s) old.

-------------------
-------------------
-------------------
727---7-7-2---54---
505---5-5-0---52---
--------------3----


Consume Thirteen Capitalist

Guitar riff's name: Consume Thirteen Capitalist
Guitar riff generated on 2020-02-24 19:37:07
This riff is 1578 day(s) old.

----------------
----------------
----------------
4---7---52-22---
2---5---52-02---
--------30--0---


Primal Mediate Fir

Guitar riff's name: Primal Mediate Fir
Guitar riff generated on 2020-02-24 19:32:31
This riff is 1578 day(s) old.

----------------
----------------
----------------
4-4---4---5-2---
2-2---2---5-0---
----------3-----


Windpipe Uncover Insecure

Guitar riff's name: Windpipe Uncover Insecure
Guitar riff generated on 2020-02-24 19:30:30
This riff is 1578 day(s) old.

----------------
----------------
----------------
2-42---7-2---55-
0-20---5-0---55-
-------------33-


Irresistible Modulate Inseam Caecum

Guitar riff's name: Irresistible Modulate Inseam Caecum
Guitar riff generated on 2020-02-24 18:59:00
This riff is 1578 day(s) old.

----------------
----------------
----------------
454---2---542-2-
252---2---522-0-
-3----0---3-0---


Penurious Indisposed Fustian Entrench

Guitar riff's name: Penurious Indisposed Fustian Entrench
Guitar riff generated on 2020-02-24 18:46:15
This riff is 1578 day(s) old.

-------------------
-------------------
-------------------
2-2---24---7---7---
0-2---02---5---5---
--0----------------


Bogeyman Industry Autobahn Engross

Guitar riff's name: Bogeyman Industry Autobahn Engross
Guitar riff generated on 2020-02-24 18:46:12
This riff is 1578 day(s) old.

----------------
----------------
----------------
5---5-2-5---57-7
5---5-2-5---55-5
3---3-0-3---3---


Peddle Dishearten Anchovy

Guitar riff's name: Peddle Dishearten Anchovy
Guitar riff generated on 2020-02-24 18:23:07
This riff is 1578 day(s) old.

----------------
----------------
----------------
4-2-2---2---2-4-
2-0-2---2---2-2-
----0---0---0---


Grandee Splatter

Guitar riff's name: Grandee Splatter
Guitar riff generated on 2020-02-24 18:22:49
This riff is 1578 day(s) old.

----------------
----------------
----------------
542-2---424---5-
522-0---202---5-
3-0-----------3-


<< < 19 20 21 22 23 24 25 26 27 28 [29] 30 31 32 33 34 35 36 37 38 39 > >>