Guitar Riffs Archive

This is an archive of all of the random guitar riffs that this script has ever generated that are archived in the database.


Transistor Prithee Dullard Bugle

Guitar riff's name: Transistor Prithee Dullard Bugle
Guitar riff generated on 2020-02-26 22:28:30
This riff is 44 day(s) old.

----------------
----------------
----------------
5---5---2---5-22
5---5---0---5-00
3---3-------3---


Queasy Ultimatum Tussock Shorthanded

Guitar riff's name: Queasy Ultimatum Tussock Shorthanded
Guitar riff generated on 2020-02-26 22:22:46
This riff is 44 day(s) old.

----------------
----------------
----------------
222---2-7-4---22
000---0-5-2---00
----------------


Corridor Depict

Guitar riff's name: Corridor Depict
Guitar riff generated on 2020-02-26 22:18:34
This riff is 44 day(s) old.

-----------------
-----------------
-----------------
7-44-2424-5454---
5-22-0202-5252---
----------3-3----


Greeting Spittoon Sirloin

Guitar riff's name: Greeting Spittoon Sirloin
Guitar riff generated on 2020-02-26 21:26:39
This riff is 44 day(s) old.

------------------
------------------
------------------
2-2---2-244-2-5---
0-0---0-022-2-5---
------------0-3---


Jasper Bathrobe Pizza

Guitar riff's name: Jasper Bathrobe Pizza
Guitar riff generated on 2020-02-26 21:26:03
This riff is 44 day(s) old.

-------------------
-------------------
-------------------
5---4-2---25---7---
5---2-0---05---5---
3----------3-------


Sectional Prudent Colonist Zloty

Guitar riff's name: Sectional Prudent Colonist Zloty
Guitar riff generated on 2020-02-26 21:25:28
This riff is 44 day(s) old.

------------------
------------------
------------------
4-2-4---4-4---4---
2-0-2---2-2---2---
------------------


Statesman Outmaneuver Euthanasia Induction

Guitar riff's name: Statesman Outmaneuver Euthanasia Induction
Guitar riff generated on 2020-02-26 21:22:14
This riff is 44 day(s) old.

----------------
----------------
----------------
4-55---27-772---
2-55---05-550---
--33------------


Watt Imbecile Girth Bloater

Guitar riff's name: Watt Imbecile Girth Bloater
Guitar riff generated on 2020-02-26 21:22:08
This riff is 44 day(s) old.

----------------
----------------
----------------
257-2---2-4-2---
055-2---2-2-2---
-3--0---0---0---


Scarecrow Gravitate

Guitar riff's name: Scarecrow Gravitate
Guitar riff generated on 2020-02-26 21:22:02
This riff is 44 day(s) old.

------------------
------------------
------------------
742---7-4-7---7---
520---5-2-5---5---
------------------


Variable Villain Zounds

Guitar riff's name: Variable Villain Zounds
Guitar riff generated on 2020-02-26 21:21:49
This riff is 44 day(s) old.

-----------------
-----------------
-----------------
2-77-7-42-55-5-2-
2-55-5-22-55-5-2-
0-------0-33-3-0-


<< < 1 2 [3] 4 5 6 7 8 9 10 11 12 13 > >>