Guitar Riffs Archive

This is an archive of all of the random guitar riffs that this script has ever generated that are archived in the database.


Concert Puke Ignition

Guitar riff's name: Concert Puke Ignition
Guitar riff generated on 2020-02-24 17:33:47
This riff is 1613 day(s) old.

-----------------
-----------------
-----------------
7-5-772-27---2---
5-5-550-05---0---
--3--------------


Mimosa Maraud Legalism Bust

Guitar riff's name: Mimosa Maraud Legalism Bust
Guitar riff generated on 2020-02-24 17:11:55
This riff is 1613 day(s) old.

-------------------
-------------------
-------------------
55-575---54---27---
55-555---52---05---
33-3-3---3---------


Midnight Vocalic Standpipe Studious

Guitar riff's name: Midnight Vocalic Standpipe Studious
Guitar riff generated on 2020-02-24 17:11:31
This riff is 1613 day(s) old.

-------------------
-------------------
-------------------
4-5-244-757---74---
2-5-022-555---52---
--3------3---------


Pippin Yardarm

Guitar riff's name: Pippin Yardarm
Guitar riff generated on 2020-02-24 17:10:54
This riff is 1613 day(s) old.

----------------
----------------
----------------
7---42---42-7-2-
5---20---20-5-2-
--------------0-


Ferrule Umbrella

Guitar riff's name: Ferrule Umbrella
Guitar riff generated on 2020-02-24 17:07:15
This riff is 1613 day(s) old.

----------------
----------------
----------------
5-2-2-4-52-2-2-2
5-0-0-2-50-0-2-0
3-------3----0--


Complacence Revenge Cockatoo Camporee

Guitar riff's name: Complacence Revenge Cockatoo Camporee
Guitar riff generated on 2020-02-24 14:56:51
This riff is 1613 day(s) old.

------------------
------------------
------------------
422---2---2-2-2---
200---2---0-0-0---
------0-----------


Connote Easy

Guitar riff's name: Connote Easy
Guitar riff generated on 2020-02-24 14:47:31
This riff is 1613 day(s) old.

----------------
----------------
----------------
5-4-2---77---2-4
5-2-0---55---2-2
3------------0--


Motor Employment

Guitar riff's name: Motor Employment
Guitar riff generated on 2020-02-24 14:47:20
This riff is 1613 day(s) old.

------------------
------------------
------------------
2-2-4-22727-5-7---
2-0-2-00505-5-5---
0-----------3-----


Overlap Probate

Guitar riff's name: Overlap Probate
Guitar riff generated on 2020-02-24 14:46:59
This riff is 1613 day(s) old.

----------------
----------------
----------------
2-4---2-2---7775
2-2---2-2---5555
0-----0-0------3


Sadiron Shortcoming Sanitation

Guitar riff's name: Sadiron Shortcoming Sanitation
Guitar riff generated on 2020-02-24 14:33:32
This riff is 1613 day(s) old.

-----------------
-----------------
-----------------
4-77-2---2-4-2---
2-55-0---0-2-0---
-----------------


<< < 20 21 22 23 24 25 26 27 28 29 [30] 31 32 33 34 35 36 37 38 39 40 > >>