Guitar Riffs Archive

This is an archive of all of the random guitar riffs that this script has ever generated that are archived in the database.


Demurrage Conduct Furor Scholar

Guitar riff's name: Demurrage Conduct Furor Scholar
Guitar riff generated on 2020-02-24 12:28:04
This riff is 1613 day(s) old.

-----------------
-----------------
-----------------
7---52---7-5---5-
5---50---5-5---5-
----3------3---3-


Recap Accommodating Aspect Vervain

Guitar riff's name: Recap Accommodating Aspect Vervain
Guitar riff generated on 2020-02-24 12:17:00
This riff is 1613 day(s) old.

-----------------
-----------------
-----------------
257-552-7-7-7255-
055-552-5-5-5055-
-3--330-------33-


Confederation Odious

Guitar riff's name: Confederation Odious
Guitar riff generated on 2020-02-24 12:02:00
This riff is 1613 day(s) old.

-------------------
-------------------
-------------------
2---2---77-2---2---
2---2---55-0---2---
0---0----------0---


Zymase Size Selfish Inflate

Guitar riff's name: Zymase Size Selfish Inflate
Guitar riff generated on 2020-02-24 11:52:27
This riff is 1613 day(s) old.

-------------------
-------------------
-------------------
2---4755---7---2---
0---2555---5---2---
------33-------0---


Listless Scribe Slang

Guitar riff's name: Listless Scribe Slang
Guitar riff generated on 2020-02-24 11:52:26
This riff is 1613 day(s) old.

----------------
----------------
----------------
2---72-2-57-527-
2---50-2-55-505-
0------0-3--3---


Mid Sparse

Guitar riff's name: Mid Sparse
Guitar riff generated on 2020-02-24 11:50:19
This riff is 1613 day(s) old.

-------------------
-------------------
-------------------
747-7-7-2-27---5---
525-5-5-0-05---5---
---------------3---


Early Delirium

Guitar riff's name: Early Delirium
Guitar riff generated on 2020-02-24 11:48:07
This riff is 1613 day(s) old.

----------------
----------------
----------------
4---7---2---7---
2---5---0---5---
----------------


Infer Exempt Muggy

Guitar riff's name: Infer Exempt Muggy
Guitar riff generated on 2020-02-24 11:47:48
This riff is 1613 day(s) old.

-------------------
-------------------
-------------------
2---2---272-7-27---
0---0---052-5-05---
----------0--------


Mackintosh Sore Chiropody Tone

Guitar riff's name: Mackintosh Sore Chiropody Tone
Guitar riff generated on 2020-02-24 11:47:26
This riff is 1613 day(s) old.

-----------------
-----------------
-----------------
55---5---2-2-2---
55---5---0-0-2---
33---3-------0---


Absolution Bologna

Guitar riff's name: Absolution Bologna
Guitar riff generated on 2020-02-24 11:42:31
This riff is 1613 day(s) old.

----------------
----------------
----------------
2---7---7-4-5---
0---5---5-2-5---
------------3---


<< < 22 23 24 25 26 27 28 29 30 31 [32] 33 34 35 36 37 38 39 40 41 42 > >>