Guitar Riffs Archive

This is an archive of all of the random guitar riffs that this script has ever generated that are archived in the database.


Meteor Bacillus Wallet Haemorrhage

Guitar riff's name: Meteor Bacillus Wallet Haemorrhage
Guitar riff generated on 2020-02-24 11:38:07
This riff is 1382 day(s) old.

-------------------
-------------------
-------------------
5-542-5-52-2---4---
5-520-5-50-0---2---
3-3---3-3----------


Maternal Sailing Silhouette

Guitar riff's name: Maternal Sailing Silhouette
Guitar riff generated on 2020-02-24 11:12:55
This riff is 1382 day(s) old.

-----------------
-----------------
-----------------
2---2-5---2---45-
2---0-5---2---25-
0-----3---0----3-


Mainspring Accustom Hermetic Cling

Guitar riff's name: Mainspring Accustom Hermetic Cling
Guitar riff generated on 2020-02-24 10:38:17
This riff is 1382 day(s) old.

----------------
----------------
----------------
4-7---2-47---54-
2-5---0-25---52-
-------------3--


Excellency Penmanship

Guitar riff's name: Excellency Penmanship
Guitar riff generated on 2020-02-24 10:38:15
This riff is 1382 day(s) old.

----------------
----------------
----------------
7-22---57-4-5---
5-00---55-2-5---
-------3----3---


Homosexual Expletive

Guitar riff's name: Homosexual Expletive
Guitar riff generated on 2020-02-24 10:23:54
This riff is 1382 day(s) old.

------------------
------------------
------------------
7-55---2---72-2---
5-55---0---50-2---
--33----------0---


Wailful Function Fortuity

Guitar riff's name: Wailful Function Fortuity
Guitar riff generated on 2020-02-24 10:23:52
This riff is 1382 day(s) old.

----------------
----------------
----------------
75525-4---7-5---
55505-2---5-5---
-33-3-------3---


Certificate Unscientific

Guitar riff's name: Certificate Unscientific
Guitar riff generated on 2020-02-24 10:10:30
This riff is 1382 day(s) old.

-------------------
-------------------
-------------------
2-7---4-2---2755---
2-5---2-2---0555---
0-------0-----33---


Debacle Crutch

Guitar riff's name: Debacle Crutch
Guitar riff generated on 2020-02-24 10:08:16
This riff is 1382 day(s) old.

-----------------
-----------------
-----------------
77---7---5-2-4---
55---5---5-2-2---
---------3-0-----


Hypersensitive Menage

Guitar riff's name: Hypersensitive Menage
Guitar riff generated on 2020-02-24 10:05:45
This riff is 1382 day(s) old.

----------------
----------------
----------------
2-5---4---457-2-
2-5---2---255-2-
0-3--------3--0-


Energize Rawhide

Guitar riff's name: Energize Rawhide
Guitar riff generated on 2020-02-24 10:05:37
This riff is 1382 day(s) old.

-----------------
-----------------
-----------------
2---7---5---22---
0---5---5---02---
--------3----0---


<< < 23 24 25 26 27 28 29 30 31 32 [33] 34 35 36 37 38 39 40 41 42 43 > >>