Guitar Riffs Archive

This is an archive of all of the random guitar riffs that this script has ever generated that are archived in the database.


Innings Increment Gaze

Guitar riff's name: Innings Increment Gaze
Guitar riff generated on 2020-02-26 21:21:26
This riff is 139 day(s) old.

----------------
----------------
----------------
5---4-4---772---
5---2-2---552---
3-----------0---


Gild Z

Guitar riff's name: Gild Z
Guitar riff generated on 2020-02-26 21:20:39
This riff is 139 day(s) old.

----------------
----------------
----------------
22---4-7-2-52---
00---2-5-0-52---
-----------30---


Punctual Commoner Expatriate Caterwaul

Guitar riff's name: Punctual Commoner Expatriate Caterwaul
Guitar riff generated on 2020-02-26 21:16:29
This riff is 139 day(s) old.

-----------------
-----------------
-----------------
74---7-452---2---
52---5-250---2---
--------3----0---


Nifty Musket Taw Pinto

Guitar riff's name: Nifty Musket Taw Pinto
Guitar riff generated on 2020-02-26 21:15:27
This riff is 139 day(s) old.

----------------
----------------
----------------
4-424---2---7---
2-202---2---5---
--------0-------


Pianist Escalator Overcharge

Guitar riff's name: Pianist Escalator Overcharge
Guitar riff generated on 2020-02-26 21:13:39
This riff is 139 day(s) old.

-----------------
-----------------
-----------------
4-55---5---554---
2-55---5---552---
--33---3---33----


Advocate Nether Potboy

Guitar riff's name: Advocate Nether Potboy
Guitar riff generated on 2020-02-26 21:12:36
This riff is 139 day(s) old.

-----------------
-----------------
-----------------
4---2-2-52---2---
2---0-2-52---0---
------0-30-------


Choose Bolivar Born

Guitar riff's name: Choose Bolivar Born
Guitar riff generated on 2020-02-26 20:35:48
This riff is 139 day(s) old.

-------------------
-------------------
-------------------
2-22-4-5---5-7-4---
0-00-2-5---5-5-2---
-------3---3-------


Typeface Mimeograph Unspotted

Guitar riff's name: Typeface Mimeograph Unspotted
Guitar riff generated on 2020-02-26 20:08:05
This riff is 139 day(s) old.

----------------
----------------
----------------
2---2-5---747---
2---0-5---525---
0-----3---------


Rabies Agglomerate Narcotic

Guitar riff's name: Rabies Agglomerate Narcotic
Guitar riff generated on 2020-02-26 19:54:43
This riff is 139 day(s) old.

-------------------
-------------------
-------------------
2---2---2-45---2---
2---2---0-25---2---
0---0------3---0---


Houseclean Pistachio Understand

Guitar riff's name: Houseclean Pistachio Understand
Guitar riff generated on 2020-02-26 19:11:32
This riff is 139 day(s) old.

----------------
----------------
----------------
2---55252---4---
2---55052---2---
0---33-30-------


<< < 1 2 3 [4] 5 6 7 8 9 10 11 12 13 14 > >>