Guitar Riffs Archive

This is an archive of all of the random guitar riffs that this script has ever generated that are archived in the database.


Jar Cornflower Precentor

Guitar riff's name: Jar Cornflower Precentor
Guitar riff generated on 2020-02-26 18:40:35
This riff is 44 day(s) old.

-----------------
-----------------
-----------------
47---4---7---5---
25---2---5---5---
-------------3---


Tread Mount Shaggy Homonym

Guitar riff's name: Tread Mount Shaggy Homonym
Guitar riff generated on 2020-02-26 18:32:56
This riff is 44 day(s) old.

----------------
----------------
----------------
7---2---5527-5-5
5---0---5505-5-5
--------33---3-3


Beneficence Detonate

Guitar riff's name: Beneficence Detonate
Guitar riff generated on 2020-02-26 18:29:04
This riff is 44 day(s) old.

-----------------
-----------------
-----------------
44-52---727-42-2-
22-50---505-20-2-
---3-----------0-


Kin Inbreeding Congregate

Guitar riff's name: Kin Inbreeding Congregate
Guitar riff generated on 2020-02-26 18:28:52
This riff is 44 day(s) old.

----------------
----------------
----------------
5-2-7---2-2---2-
5-0-5---2-2---0-
3-------0-0-----


Frigid Surmount

Guitar riff's name: Frigid Surmount
Guitar riff generated on 2020-02-26 18:28:27
This riff is 44 day(s) old.

-----------------
-----------------
-----------------
2-4---75---2-4---
2-2---55---0-2---
0------3---------


Partitive Naked Emanate

Guitar riff's name: Partitive Naked Emanate
Guitar riff generated on 2020-02-26 18:27:53
This riff is 44 day(s) old.

-----------------
-----------------
-----------------
544---4---5745---
522---2---5525---
3---------3--3---


Bodily Interrelate

Guitar riff's name: Bodily Interrelate
Guitar riff generated on 2020-02-26 18:23:23
This riff is 44 day(s) old.

----------------
----------------
----------------
257-7---74---22-
055-5---52---02-
-3------------0-


Chamois Apologize Pancake Festoon

Guitar riff's name: Chamois Apologize Pancake Festoon
Guitar riff generated on 2020-02-26 18:19:24
This riff is 44 day(s) old.

----------------
----------------
----------------
42-7222-7-4---2-
22-5002-5-2---2-
-0----0-------0-


Outspoken Cord Epigram

Guitar riff's name: Outspoken Cord Epigram
Guitar riff generated on 2020-02-26 18:19:23
This riff is 44 day(s) old.

----------------
----------------
----------------
552-2545-72-4-5-
550-0525-52-2-5-
33---3-3--0---3-


Mien Popinjay Instanter Pone

Guitar riff's name: Mien Popinjay Instanter Pone
Guitar riff generated on 2020-02-26 17:54:22
This riff is 44 day(s) old.

----------------
----------------
----------------
44-7---2552-2---
22-5---0552-0---
--------330-----


<< < 1 2 3 4 [5] 6 7 8 9 10 11 12 13 14 15 > >>