Guitar Riffs Archive

This is an archive of all of the random guitar riffs that this script has ever generated that are archived in the database.


Calico Thunderclap

Guitar riff's name: Calico Thunderclap
Guitar riff generated on 2020-02-26 17:53:50
This riff is 139 day(s) old.

----------------
----------------
----------------
42-22-2---7-2-55
22-00-2---5-2-55
-0----0-----0-33


Astigmatism Largess Hall

Guitar riff's name: Astigmatism Largess Hall
Guitar riff generated on 2020-02-26 17:53:30
This riff is 139 day(s) old.

-----------------
-----------------
-----------------
2---5544---5---4-
2---5522---5---2-
0---33-----3-----


Preflight Extracurricular Joyful Running

Guitar riff's name: Preflight Extracurricular Joyful Running
Guitar riff generated on 2020-02-26 17:30:10
This riff is 139 day(s) old.

----------------
----------------
----------------
7---72---52---4-
5---50---50---2-
---------3------


Ambience Whiteness

Guitar riff's name: Ambience Whiteness
Guitar riff generated on 2020-02-26 17:29:45
This riff is 139 day(s) old.

-----------------
-----------------
-----------------
74---42-7455---4-
52---22-5255---2-
------0---33-----


Bracken Sore Rheostat Z

Guitar riff's name: Bracken Sore Rheostat Z
Guitar riff generated on 2020-02-26 17:26:57
This riff is 139 day(s) old.

-------------------
-------------------
-------------------
4---2-5-2---52-4---
2---0-5-0---52-2---
------3-----30-----


Greenback Pasturage

Guitar riff's name: Greenback Pasturage
Guitar riff generated on 2020-02-26 17:26:53
This riff is 139 day(s) old.

-----------------
-----------------
-----------------
2-7-2-7-4-7-45---
2-5-0-5-2-5-25---
0------------3---


Federation Solarium

Guitar riff's name: Federation Solarium
Guitar riff generated on 2020-02-26 17:24:39
This riff is 139 day(s) old.

------------------
------------------
------------------
42-27---27---42---
20-05---05---22---
--------------0---


Jaw Pocket Abut

Guitar riff's name: Jaw Pocket Abut
Guitar riff generated on 2020-02-26 17:16:11
This riff is 139 day(s) old.

----------------
----------------
----------------
5---5-22---2-2-2
5---5-00---2-0-0
3---3------0----


Opal Depot

Guitar riff's name: Opal Depot
Guitar riff generated on 2020-02-26 17:10:05
This riff is 139 day(s) old.

----------------
----------------
----------------
4-7---22---52---
2-5---02---52---
-------0---30---


Strop Yesterday

Guitar riff's name: Strop Yesterday
Guitar riff generated on 2020-02-26 16:57:58
This riff is 139 day(s) old.

----------------
----------------
----------------
54-77---7---2---
52-55---5---0---
3---------------


<< < 1 2 3 4 5 [6] 7 8 9 10 11 12 13 14 15 16 > >>