Guitar Riffs Archive

This is an archive of all of the random guitar riffs that this script has ever generated that are archived in the database.


Measurement Swipe

Guitar riff's name: Measurement Swipe
Guitar riff generated on 2020-02-26 16:57:32
This riff is 44 day(s) old.

-----------------
-----------------
-----------------
2---2-5---54-2-2-
0---0-5---52-2-2-
------3---3--0-0-


Spindle Garish Titbit

Guitar riff's name: Spindle Garish Titbit
Guitar riff generated on 2020-02-26 16:57:22
This riff is 44 day(s) old.

-----------------
-----------------
-----------------
475---4-42-2---4-
255---2-22-2---2-
--3------0-0-----


Buff Endless Vegetable

Guitar riff's name: Buff Endless Vegetable
Guitar riff generated on 2020-02-26 16:41:30
This riff is 44 day(s) old.

-------------------
-------------------
-------------------
2-4-7-22---722-4---
2-2-5-00---502-2---
0------------0-----


Cleaver Radiograph

Guitar riff's name: Cleaver Radiograph
Guitar riff generated on 2020-02-26 16:40:12
This riff is 44 day(s) old.

-----------------
-----------------
-----------------
7-25---7-2-5---4-
5-05---5-0-5---2-
---3-------3-----


Fortuity Irreversible

Guitar riff's name: Fortuity Irreversible
Guitar riff generated on 2020-02-26 16:26:26
This riff is 44 day(s) old.

-----------------
-----------------
-----------------
44---7---2---5---
22---5---2---5---
---------0---3---


Screwball Flitch

Guitar riff's name: Screwball Flitch
Guitar riff generated on 2020-02-26 16:18:17
This riff is 44 day(s) old.

-------------------
-------------------
-------------------
2---72---7---2-7---
2---50---5---2-5---
0------------0-----


Kindred Settee Troopship Goner

Guitar riff's name: Kindred Settee Troopship Goner
Guitar riff generated on 2020-02-26 15:51:18
This riff is 44 day(s) old.

----------------
----------------
----------------
72-54-2-5-22---2
52-52-2-5-00---0
-0-3--0-3-------


Unmeaning Champagne

Guitar riff's name: Unmeaning Champagne
Guitar riff generated on 2020-02-26 15:50:00
This riff is 44 day(s) old.

----------------
----------------
----------------
4---42-7---52---
2---20-5---50---
-----------3----


Poach Jail Hollo Fusillade

Guitar riff's name: Poach Jail Hollo Fusillade
Guitar riff generated on 2020-02-26 15:47:04
This riff is 44 day(s) old.

------------------
------------------
------------------
2-2-524---4---2---
2-2-502---2---2---
0-0-3---------0---


Flavour Expectant Handicraft

Guitar riff's name: Flavour Expectant Handicraft
Guitar riff generated on 2020-02-26 15:46:10
This riff is 44 day(s) old.

----------------
----------------
----------------
2---7---5---2---
2---5---5---0---
0-------3-------


<< < 1 2 3 4 5 6 [7] 8 9 10 11 12 13 14 15 16 17 > >>