Guitar Riffs Archive

This is an archive of all of the random guitar riffs that this script has ever generated that are archived in the database.


Cellular Repine

Guitar riff's name: Cellular Repine
Guitar riff generated on 2020-02-26 15:22:16
This riff is 139 day(s) old.

-------------------
-------------------
-------------------
7---4---2-2---74---
5---2---2-0---52---
--------0----------


Stitch Electrolysis Festive

Guitar riff's name: Stitch Electrolysis Festive
Guitar riff generated on 2020-02-26 15:22:11
This riff is 139 day(s) old.

----------------
----------------
----------------
7---2---5---4---
5---0---5---2---
--------3-------


Won Epicurean Pecan

Guitar riff's name: Won Epicurean Pecan
Guitar riff generated on 2020-02-26 15:21:41
This riff is 139 day(s) old.

------------------
------------------
------------------
4---5---5---4-7---
2---5---5---2-5---
----3---3---------


Doormat Symphony Vasty

Guitar riff's name: Doormat Symphony Vasty
Guitar riff generated on 2020-02-26 15:21:20
This riff is 139 day(s) old.

----------------
----------------
----------------
2-2-55-274---2-2
0-2-55-052---0-0
--0-33----------


Couch Wheelchair

Guitar riff's name: Couch Wheelchair
Guitar riff generated on 2020-02-26 15:21:14
This riff is 139 day(s) old.

----------------
----------------
----------------
2-2-2---7---2---
0-0-2---5---2---
----0-------0---


Basket Biparental

Guitar riff's name: Basket Biparental
Guitar riff generated on 2020-02-26 14:54:23
This riff is 139 day(s) old.

-----------------
-----------------
-----------------
2---2---72---7---
0---2---52---5---
----0----0-------


Last Libel

Guitar riff's name: Last Libel
Guitar riff generated on 2020-02-26 14:54:15
This riff is 139 day(s) old.

----------------
----------------
----------------
552---2-5---4---
550---2-5---2---
33----0-3-------


Purebred Chanson Coquette

Guitar riff's name: Purebred Chanson Coquette
Guitar riff generated on 2020-02-26 14:54:15
This riff is 139 day(s) old.

-----------------
-----------------
-----------------
5---2---42---2---
5---0---20---2---
3------------0---


Born As Guinea Frigate

Guitar riff's name: Born As Guinea Frigate
Guitar riff generated on 2020-02-26 14:54:07
This riff is 139 day(s) old.

-----------------
-----------------
-----------------
5---22---4---2-5-
5---02---2---2-5-
3----0-------0-3-


Tall Aria Irrelevant

Guitar riff's name: Tall Aria Irrelevant
Guitar riff generated on 2020-02-26 14:51:31
This riff is 139 day(s) old.

----------------
----------------
----------------
7775---55-454---
5555---55-252---
---3---33--3----


<< < 1 2 3 4 5 6 7 [8] 9 10 11 12 13 14 15 16 17 18 > >>