Guitar Riffs Archive

This is an archive of all of the random guitar riffs that this script has ever generated that are archived in the database.


Calico Chorea

Guitar riff's name: Calico Chorea
Guitar riff generated on 2020-02-26 14:37:09
This riff is 44 day(s) old.

-----------------
-----------------
-----------------
7-4---47-2-7---5-
5-2---25-0-5---5-
---------------3-


Mandarin Partisan

Guitar riff's name: Mandarin Partisan
Guitar riff generated on 2020-02-26 14:36:44
This riff is 44 day(s) old.

----------------
----------------
----------------
45---57---2-5-2-
25---55---2-5-0-
-3---3----0-3---


Fee Bleary Hobbyhorse Jobholder

Guitar riff's name: Fee Bleary Hobbyhorse Jobholder
Guitar riff generated on 2020-02-26 14:33:26
This riff is 44 day(s) old.

------------------
------------------
------------------
4-4---2---2---2---
2-2---2---2---2---
------0---0---0---


Bonus Plunge

Guitar riff's name: Bonus Plunge
Guitar riff generated on 2020-02-26 13:15:40
This riff is 44 day(s) old.

-----------------
-----------------
-----------------
5---5---72---5---
5---5---52---5---
3---3----0---3---


Drear Blatherskite

Guitar riff's name: Drear Blatherskite
Guitar riff generated on 2020-02-26 13:13:28
This riff is 44 day(s) old.

----------------
----------------
----------------
2---2-5---5-4-2-
2---2-5---5-2-2-
0---0-3---3---0-


Rouble Jumper Cake

Guitar riff's name: Rouble Jumper Cake
Guitar riff generated on 2020-02-26 13:10:13
This riff is 44 day(s) old.

----------------
----------------
----------------
45-7---57---2---
25-5---55---0---
-3-----3--------


Midpoint Firth Braille

Guitar riff's name: Midpoint Firth Braille
Guitar riff generated on 2020-02-26 12:18:22
This riff is 44 day(s) old.

-----------------
-----------------
-----------------
452-4---7-7-44---
250-2---5-5-22---
-3---------------


Mass Adorn

Guitar riff's name: Mass Adorn
Guitar riff generated on 2020-02-26 12:12:40
This riff is 44 day(s) old.

-----------------
-----------------
-----------------
4---55---7---5-7-
2---55---5---5-5-
----33-------3---


Husky Warbonnet

Guitar riff's name: Husky Warbonnet
Guitar riff generated on 2020-02-26 12:10:38
This riff is 44 day(s) old.

------------------
------------------
------------------
52-2---52---2-4---
52-2---52---2-2---
30-0---30---0-----


Morsel Wrongheaded Bottle

Guitar riff's name: Morsel Wrongheaded Bottle
Guitar riff generated on 2020-02-26 12:05:39
This riff is 44 day(s) old.

----------------
----------------
----------------
7-5---574---7-2-
5-5---552---5-0-
--3---3---------


<< < 1 2 3 4 5 6 7 8 [9] 10 11 12 13 14 15 16 17 18 19 > >>