Guitar Riffs Archive

This is an archive of all of the random guitar riffs that this script has ever generated that are archived in the database.


Decode Immiscible Etymology Inconvenience

Guitar riff's name: Decode Immiscible Etymology Inconvenience
Guitar riff generated on 2018-09-20 05:50:39
This riff is less than 1 day old

Listen to the computer-generated guitar riff:

-----------------
-----------------
-----------------
7-2-74---5---7---
5-0-52---5---5---
---------3-------


Horizon Dogmatism Aurora

Guitar riff's name: Horizon Dogmatism Aurora
Guitar riff generated on 2018-09-20 04:57:49
This riff is less than 1 day old

Listen to the computer-generated guitar riff:

----------------
----------------
----------------
7-4---5-4---2---
5-2---5-2---2---
------3-----0---


Canyon Menses Demand Negligent

Guitar riff's name: Canyon Menses Demand Negligent
Guitar riff generated on 2018-09-20 04:57:48
This riff is less than 1 day old

Listen to the computer-generated guitar riff:

-----------------
-----------------
-----------------
4-52---2---4---5-
2-52---2---2---5-
--30---0-------3-


Stress Curse Formative Yoga

Guitar riff's name: Stress Curse Formative Yoga
Guitar riff generated on 2018-09-20 04:37:59
This riff is less than 1 day old

Listen to the computer-generated guitar riff:

----------------
----------------
----------------
2-5---2---7-2-7-
2-5---2---5-2-5-
0-3---0-----0---


Deploy Quadrant

Guitar riff's name: Deploy Quadrant
Guitar riff generated on 2018-09-20 04:37:53
This riff is less than 1 day old

Listen to the computer-generated guitar riff:

------------------
------------------
------------------
2---7-5---4---5---
0---5-5---2---5---
------3-------3---


Halberd Episcopate

Guitar riff's name: Halberd Episcopate
Guitar riff generated on 2018-09-20 04:37:23
This riff is less than 1 day old

Listen to the computer-generated guitar riff:

----------------
----------------
----------------
2---47-55---5---
0---25-55---5---
-------33---3---


Scallion Pylon

Guitar riff's name: Scallion Pylon
Guitar riff generated on 2018-09-20 04:35:14
This riff is less than 1 day old

Listen to the computer-generated guitar riff:

------------------
------------------
------------------
2---5-2---7---2---
2---5-0---5---0---
0---3-------------


Conjuncture Pigtail

Guitar riff's name: Conjuncture Pigtail
Guitar riff generated on 2018-09-20 04:34:57
This riff is less than 1 day old

Listen to the computer-generated guitar riff:

-----------------
-----------------
-----------------
47---7-2---2---2-
25---5-0---2---0-
-----------0-----


Neoclassic Leviathan Philter

Guitar riff's name: Neoclassic Leviathan Philter
Guitar riff generated on 2018-09-20 04:20:37
This riff is less than 1 day old

Listen to the computer-generated guitar riff:

-------------------
-------------------
-------------------
7---2-547-2-2-52---
5---2-525-2-2-52---
----0-3---0-0-30---


Trout Hospital Catcher Warbonnet

Guitar riff's name: Trout Hospital Catcher Warbonnet
Guitar riff generated on 2018-09-20 04:18:45
This riff is less than 1 day old

Listen to the computer-generated guitar riff:

-------------------
-------------------
-------------------
2-2---742---2-77---
2-0---522---2-55---
0-------0---0------


[1] 2 3 4 5 6 7 8 9 10 11 > >>