Guitar Riffs Archive

This is an archive of all of the random guitar riffs that this script has ever generated that are archived in the database.


Objectify Inquest

Guitar riff's name: Objectify Inquest
Guitar riff generated on 2017-12-13 15:39:30
This riff is less than 1 day old

Listen to the computer-generated guitar riff:

----------------
----------------
----------------
2-2---2-5-4---5-
2-0---0-5-2---5-
0-------3-----3-


Snip Resolute

Guitar riff's name: Snip Resolute
Guitar riff generated on 2017-12-13 15:39:07
This riff is less than 1 day old

Listen to the computer-generated guitar riff:

----------------
----------------
----------------
7---75-72-4-7---
5---55-50-2-5---
-----3----------


Enormity Alimentary Mart Unarm

Guitar riff's name: Enormity Alimentary Mart Unarm
Guitar riff generated on 2017-12-13 15:35:15
This riff is less than 1 day old

Listen to the computer-generated guitar riff:

-----------------
-----------------
-----------------
2---2-4-5-44-4---
2---0-2-5-22-2---
0-------3--------


Moonscape Unsubstantial Inventory Camaraderie

Guitar riff's name: Moonscape Unsubstantial Inventory Camaraderie
Guitar riff generated on 2017-12-13 15:00:21
This riff is less than 1 day old

Listen to the computer-generated guitar riff:

----------------
----------------
----------------
524---545---2-5-
502---525---0-5-
3-----3-3-----3-


Waylay Murder Hideous Unfasten

Guitar riff's name: Waylay Murder Hideous Unfasten
Guitar riff generated on 2017-12-13 15:00:15
This riff is less than 1 day old

Listen to the computer-generated guitar riff:

----------------
----------------
----------------
4---54-55-77-44-
2---52-55-55-22-
----3--33-------


Laboratory Agony

Guitar riff's name: Laboratory Agony
Guitar riff generated on 2017-12-13 14:26:52
This riff is less than 1 day old

Listen to the computer-generated guitar riff:

----------------
----------------
----------------
7-4---2---7-5---
5-2---2---5-5---
------0-----3---


Afflatus Connive

Guitar riff's name: Afflatus Connive
Guitar riff generated on 2017-12-13 14:26:19
This riff is less than 1 day old

Listen to the computer-generated guitar riff:

------------------
------------------
------------------
2-24---4-45---2---
2-02---2-25---0---
0---------3-------


Headset Catcall Rate Algebra

Guitar riff's name: Headset Catcall Rate Algebra
Guitar riff generated on 2017-12-13 14:25:22
This riff is less than 1 day old

Listen to the computer-generated guitar riff:

-----------------
-----------------
-----------------
4---2-7---47---5-
2---0-5---25---5-
---------------3-


Thunderclap Wooded

Guitar riff's name: Thunderclap Wooded
Guitar riff generated on 2017-12-13 14:17:18
This riff is less than 1 day old

Listen to the computer-generated guitar riff:

----------------
----------------
----------------
4---5---725-2---
2---5---505-0---
----3-----3-----


Assize Unorganized Desolate

Guitar riff's name: Assize Unorganized Desolate
Guitar riff generated on 2017-12-13 13:52:04
This riff is less than 1 day old

Listen to the computer-generated guitar riff:

------------------
------------------
------------------
2---2-7-2-2-2-7---
2---0-5-0-0-2-5---
0-----------0-----


[1] 2 3 4 5 6 7 8 9 10 11 > >>