Guitar Riffs Archive

This is an archive of all of the random guitar riffs that this script has ever generated that are archived in the database.


Type Lawsuit Quantum Grateful

Guitar riff's name: Type Lawsuit Quantum Grateful
Guitar riff generated on 2019-04-18 14:10:19
This riff is less than 1 day old

Listen to the computer-generated guitar riff:

----------------
----------------
----------------
2---75-22-42---5
0---55-02-20---5
-----3--0------3


Tam Cope

Guitar riff's name: Tam Cope
Guitar riff generated on 2019-04-18 14:08:46
This riff is less than 1 day old

Listen to the computer-generated guitar riff:

----------------
----------------
----------------
252---5---5---7-
052---5---5---5-
-30---3---3-----


Saying Creditable

Guitar riff's name: Saying Creditable
Guitar riff generated on 2019-04-18 14:05:59
This riff is less than 1 day old

Listen to the computer-generated guitar riff:

------------------
------------------
------------------
7-7---7-4-7-2-2---
5-5---5-2-5-2-2---
------------0-0---


Averment Ambuscade

Guitar riff's name: Averment Ambuscade
Guitar riff generated on 2019-04-18 13:54:20
This riff is less than 1 day old

Listen to the computer-generated guitar riff:

-------------------
-------------------
-------------------
442-2---2-4---54---
220-2---2-2---52---
----0---0-----3----


Devilry Elephant Blunt

Guitar riff's name: Devilry Elephant Blunt
Guitar riff generated on 2019-04-18 13:50:23
This riff is less than 1 day old

Listen to the computer-generated guitar riff:

----------------
----------------
----------------
42-4---72-5---7-
22-2---52-5---5-
-0------0-3-----


Checkroom Transcript Polio Clang

Guitar riff's name: Checkroom Transcript Polio Clang
Guitar riff generated on 2019-04-18 13:40:40
This riff is less than 1 day old

Listen to the computer-generated guitar riff:

-----------------
-----------------
-----------------
42-74---4---44---
22-52---2---22---
-0---------------


Indecisive Blunder Quadruped Petrol

Guitar riff's name: Indecisive Blunder Quadruped Petrol
Guitar riff generated on 2019-04-18 13:33:31
This riff is less than 1 day old

Listen to the computer-generated guitar riff:

------------------
------------------
------------------
5-7-2-5---2---7---
5-5-2-5---0---5---
3---0-3-----------


Lion Bowel Strikeout Bog

Guitar riff's name: Lion Bowel Strikeout Bog
Guitar riff generated on 2019-04-18 13:33:22
This riff is less than 1 day old

Listen to the computer-generated guitar riff:

----------------
----------------
----------------
4-52-4-5-22-7-5-
2-52-2-5-02-5-5-
--30---3--0---3-


Figurative Oatcake Apartheid Monogram

Guitar riff's name: Figurative Oatcake Apartheid Monogram
Guitar riff generated on 2019-04-18 13:32:18
This riff is less than 1 day old

Listen to the computer-generated guitar riff:

----------------
----------------
----------------
72-7---4-44---5-
50-5---2-22---5-
--------------3-


Rambler Caldron Petticoat

Guitar riff's name: Rambler Caldron Petticoat
Guitar riff generated on 2019-04-18 13:32:10
This riff is less than 1 day old

Listen to the computer-generated guitar riff:

----------------
----------------
----------------
4---2---2-2-5-7-
2---0---2-0-5-5-
--------0---3---


[1] 2 3 4 5 6 7 8 9 10 11 > >>