Guitar Riffs Archive

This is an archive of all of the random guitar riffs that this script has ever generated that are archived in the database.


Clutter Paladin

Guitar riff's name: Clutter Paladin
Guitar riff generated on 2018-02-23 18:46:02
This riff is less than 1 day old

Listen to the computer-generated guitar riff:

----------------
----------------
----------------
277-77-2---25---
055-55-2---05---
-------0----3---


Charlatan Departure

Guitar riff's name: Charlatan Departure
Guitar riff generated on 2018-02-23 18:26:35
This riff is less than 1 day old

Listen to the computer-generated guitar riff:

-------------------
-------------------
-------------------
2-577-42-5-7-5-2---
2-555-22-5-5-5-0---
0-3----0-3---3-----


Incandescent Grange Prescription

Guitar riff's name: Incandescent Grange Prescription
Guitar riff generated on 2018-02-23 17:35:27
This riff is less than 1 day old

Listen to the computer-generated guitar riff:

-------------------
-------------------
-------------------
7-2-4---52---4-2---
5-0-2---50---2-0---
--------3----------


Gnarl Unremitting

Guitar riff's name: Gnarl Unremitting
Guitar riff generated on 2018-02-23 17:20:43
This riff is less than 1 day old

Listen to the computer-generated guitar riff:

-----------------
-----------------
-----------------
2-7---2-5-55-4---
0-5---0-5-55-2---
--------3-33-----


Foxglove

Guitar riff's name: Foxglove
Guitar riff generated on 2018-02-23 17:18:27
This riff is less than 1 day old

Listen to the computer-generated guitar riff:

-------------------
-------------------
-------------------
2-4---4---52---2---
0-2---2---50---2---
----------3----0---


Codify Campanile

Guitar riff's name: Codify Campanile
Guitar riff generated on 2018-02-23 17:12:58
This riff is less than 1 day old

Listen to the computer-generated guitar riff:

-----------------
-----------------
-----------------
5-2---4-2---54---
5-0---2-0---52---
3-----------3----


Dame Brainchild Disloyal

Guitar riff's name: Dame Brainchild Disloyal
Guitar riff generated on 2018-02-23 17:07:04
This riff is less than 1 day old

Listen to the computer-generated guitar riff:

------------------
------------------
------------------
77-55---45-44-2---
55-55---25-22-0---
---33----3--------


Sirloin Propitiate Gooseberry

Guitar riff's name: Sirloin Propitiate Gooseberry
Guitar riff generated on 2018-02-23 17:04:45
This riff is less than 1 day old

Listen to the computer-generated guitar riff:

----------------
----------------
----------------
4-2-752---775-7-
2-2-550---555-5-
--0--3------3---


Penmanship Reek

Guitar riff's name: Penmanship Reek
Guitar riff generated on 2018-02-23 17:01:30
This riff is less than 1 day old

Listen to the computer-generated guitar riff:

-----------------
-----------------
-----------------
22-5---2-4-557---
02-5---0-2-555---
-0-3-------33----


Eyetooth Auctioneer Stymie Horseman

Guitar riff's name: Eyetooth Auctioneer Stymie Horseman
Guitar riff generated on 2018-02-23 16:55:15
This riff is less than 1 day old

Listen to the computer-generated guitar riff:

-------------------
-------------------
-------------------
4-4---2---2-42-2---
2-2---0---2-20-2---
----------0----0---


[1] 2 3 4 5 6 7 8 9 10 11 > >>