Guitar Riffs Archive

This is an archive of all of the random guitar riffs that this script has ever generated that are archived in the database.


Dove Premix Ladyship

Guitar riff's name: Dove Premix Ladyship
Guitar riff generated on 2020-01-27 12:39:27
This riff is less than 1 day old

Listen to the computer-generated guitar riff:

----------------
----------------
----------------
2-7---2-4---2---
2-5---0-2---0---
0---------------


Daily Ova

Guitar riff's name: Daily Ova
Guitar riff generated on 2020-01-27 12:39:23
This riff is less than 1 day old

Listen to the computer-generated guitar riff:

-------------------
-------------------
-------------------
7---75---2---724---
5---55---0---502---
-----3-------------


Corn Languid Woodshed

Guitar riff's name: Corn Languid Woodshed
Guitar riff generated on 2020-01-27 12:39:20
This riff is less than 1 day old

Listen to the computer-generated guitar riff:

----------------
----------------
----------------
77---4---25-5-57
55---2---05-5-55
----------3-3-3-


Hayloft Truckage

Guitar riff's name: Hayloft Truckage
Guitar riff generated on 2020-01-27 12:39:19
This riff is less than 1 day old

Listen to the computer-generated guitar riff:

-----------------
-----------------
-----------------
4-5-5---75---5---
2-5-5---55---5---
--3-3----3---3---


Statesman Overarm Copious

Guitar riff's name: Statesman Overarm Copious
Guitar riff generated on 2020-01-27 12:16:36
This riff is less than 1 day old

Listen to the computer-generated guitar riff:

-------------------
-------------------
-------------------
2---2---72-2-5-5---
0---2---50-0-5-5---
----0--------3-3---


Set Zenith Luxury Interdict

Guitar riff's name: Set Zenith Luxury Interdict
Guitar riff generated on 2020-01-27 12:15:56
This riff is less than 1 day old

Listen to the computer-generated guitar riff:

----------------
----------------
----------------
2---7---72---52-
2---5---50---52-
0------------30-


Shorn Drawbridge

Guitar riff's name: Shorn Drawbridge
Guitar riff generated on 2020-01-27 12:09:24
This riff is less than 1 day old

Listen to the computer-generated guitar riff:

------------------
------------------
------------------
5-2---24---2772---
5-0---02---0550---
3-----------------


Runagate Inexpressible Oxide

Guitar riff's name: Runagate Inexpressible Oxide
Guitar riff generated on 2020-01-27 11:33:28
This riff is less than 1 day old

Listen to the computer-generated guitar riff:

-----------------
-----------------
-----------------
42-4-47---55---2-
22-2-25---55---2-
-0--------33---0-


Macaroon Doubtful Otherwise

Guitar riff's name: Macaroon Doubtful Otherwise
Guitar riff generated on 2020-01-27 11:33:20
This riff is less than 1 day old

Listen to the computer-generated guitar riff:

-------------------
-------------------
-------------------
5---55---2-2---4---
5---55---0-0---2---
3---33-------------


Unfurl Garb Ling Vexatious

Guitar riff's name: Unfurl Garb Ling Vexatious
Guitar riff generated on 2020-01-27 11:33:11
This riff is less than 1 day old

Listen to the computer-generated guitar riff:

----------------
----------------
----------------
2---5---2-5---4-
0---5---2-5---2-
----3---0-3-----


[1] 2 3 4 5 6 7 8 9 10 11 > >>