Guitar Riffs Archive

This is an archive of all of the random guitar riffs that this script has ever generated that are archived in the database.


Relevant Erase

Guitar riff's name: Relevant Erase
Guitar riff generated on 2018-12-17 06:39:10
This riff is less than 1 day old

Listen to the computer-generated guitar riff:

-------------------
-------------------
-------------------
2-27---7---2-5-5---
2-05---5---2-5-5---
0----------0-3-3---


Glue Dimension His Jazzy

Guitar riff's name: Glue Dimension His Jazzy
Guitar riff generated on 2018-12-17 06:39:09
This riff is less than 1 day old

Listen to the computer-generated guitar riff:

-------------------
-------------------
-------------------
2---2---2---22-5---
2---2---2---02-5---
0---0---0----0-3---


Interchange Pore

Guitar riff's name: Interchange Pore
Guitar riff generated on 2018-12-17 06:39:09
This riff is less than 1 day old

Listen to the computer-generated guitar riff:

-----------------
-----------------
-----------------
547---4-22-254---
525---2-02-052---
3--------0--3----


Bittersweet Polite Unarmed Antecedent

Guitar riff's name: Bittersweet Polite Unarmed Antecedent
Guitar riff generated on 2018-12-17 06:39:07
This riff is less than 1 day old

Listen to the computer-generated guitar riff:

-------------------
-------------------
-------------------
2-7-5-2-5-2---72---
2-5-5-0-5-0---50---
0---3---3----------


Niacin Wabble Boliviano Uncial

Guitar riff's name: Niacin Wabble Boliviano Uncial
Guitar riff generated on 2018-12-17 06:38:54
This riff is less than 1 day old

Listen to the computer-generated guitar riff:

----------------
----------------
----------------
2---54-42---27-7
2---52-22---05-5
0---3---0-------


Humanize Plaintive

Guitar riff's name: Humanize Plaintive
Guitar riff generated on 2018-12-17 06:38:04
This riff is less than 1 day old

Listen to the computer-generated guitar riff:

-------------------
-------------------
-------------------
4-2-2---5-42---2---
2-0-2---5-20---2---
----0---3------0---


Seasick Critical

Guitar riff's name: Seasick Critical
Guitar riff generated on 2018-12-17 06:37:57
This riff is less than 1 day old

Listen to the computer-generated guitar riff:

----------------
----------------
----------------
2-7---5-2---7-7-
0-5---5-0---5-5-
------3---------


Spent Proscenium

Guitar riff's name: Spent Proscenium
Guitar riff generated on 2018-12-17 06:37:25
This riff is less than 1 day old

Listen to the computer-generated guitar riff:

----------------
----------------
----------------
22-4-74-5---7---
02-2-52-5---5---
-0------3-------


Whetstone Schoolboy Sorrow

Guitar riff's name: Whetstone Schoolboy Sorrow
Guitar riff generated on 2018-12-17 06:28:31
This riff is less than 1 day old

Listen to the computer-generated guitar riff:

-----------------
-----------------
-----------------
4---5---2---47---
2---5---0---25---
----3------------


Ladyfinger Felony

Guitar riff's name: Ladyfinger Felony
Guitar riff generated on 2018-12-17 06:24:40
This riff is less than 1 day old

Listen to the computer-generated guitar riff:

-----------------
-----------------
-----------------
2-572---42---442-
2-550---22---222-
0-3------0-----0-


[1] 2 3 4 5 6 7 8 9 10 11 > >>