Guitar Riffs Archive

This is an archive of all of the random guitar riffs that this script has ever generated that are archived in the database.


Chaunt Tractor

Guitar riff's name: Chaunt Tractor
Guitar riff generated on 2019-10-18 04:13:06
This riff is less than 1 day old

Listen to the computer-generated guitar riff:

-----------------
-----------------
-----------------
4---2---7---5-22-
2---0---5---5-02-
------------3--0-


Beatify Tambourine Vitals

Guitar riff's name: Beatify Tambourine Vitals
Guitar riff generated on 2019-10-18 04:13:02
This riff is less than 1 day old

Listen to the computer-generated guitar riff:

----------------
----------------
----------------
2---54527-2-2---
0---52505-2-0---
----3-3---0-----


Reborn Embroidery

Guitar riff's name: Reborn Embroidery
Guitar riff generated on 2019-10-18 03:47:36
This riff is less than 1 day old

Listen to the computer-generated guitar riff:

----------------
----------------
----------------
2-22-27427---77-
0-00-05205---55-
----------------


Shadow Snoop Tibia Pace

Guitar riff's name: Shadow Snoop Tibia Pace
Guitar riff generated on 2019-10-18 03:44:14
This riff is less than 1 day old

Listen to the computer-generated guitar riff:

-------------------
-------------------
-------------------
2-2-4-44---5---4---
0-2-2-22---5---2---
--0--------3-------


Minuend Cupbearer

Guitar riff's name: Minuend Cupbearer
Guitar riff generated on 2019-10-18 03:34:57
This riff is less than 1 day old

Listen to the computer-generated guitar riff:

-----------------
-----------------
-----------------
2-442-2-5-77---5-
2-220-2-5-55---5-
0-----0-3------3-


Trivet Conjure Pageant Constellation

Guitar riff's name: Trivet Conjure Pageant Constellation
Guitar riff generated on 2019-10-18 01:18:19
This riff is less than 1 day old

Listen to the computer-generated guitar riff:

-----------------
-----------------
-----------------
4---52-7-4---5-7-
2---52-5-2---5-5-
----30-------3---


Antivivisectionist Moonshine

Guitar riff's name: Antivivisectionist Moonshine
Guitar riff generated on 2019-10-18 00:28:43
This riff is less than 1 day old

Listen to the computer-generated guitar riff:

-----------------
-----------------
-----------------
2---2---42-5---5-
0---0---20-5---5-
-----------3---3-


Indorse Varicolored Wizardry Fine

Guitar riff's name: Indorse Varicolored Wizardry Fine
Guitar riff generated on 2019-10-17 23:46:39
This riff is 1 day(s) old.

----------------
----------------
----------------
4---2-4244-27---
2---2-2022-05---
----0-----------


Attempt Distrait

Guitar riff's name: Attempt Distrait
Guitar riff generated on 2019-10-17 23:46:37
This riff is 1 day(s) old.

------------------
------------------
------------------
57---42---5-7-7---
55---20---5-5-5---
3---------3-------


Boredom Comfortable Dispensable Frond

Guitar riff's name: Boredom Comfortable Dispensable Frond
Guitar riff generated on 2019-10-17 23:39:30
This riff is 1 day(s) old.

------------------
------------------
------------------
2-42---4-7---44---
2-20---2-5---22---
0-----------------


[1] 2 3 4 5 6 7 8 9 10 11 > >>