Guitar Riffs Archive

This is an archive of all of the random guitar riffs that this script has ever generated that are archived in the database.


Correspondence Presidio Summerhouse

Guitar riff's name: Correspondence Presidio Summerhouse
Guitar riff generated on 2020-02-27 03:15:39
This riff is 158 day(s) old.

----------------
----------------
----------------
2---4---5---2---
2---2---5---2---
0-------3---0---


Exception Stutter Moist Invulnerable

Guitar riff's name: Exception Stutter Moist Invulnerable
Guitar riff generated on 2020-02-27 02:30:38
This riff is 158 day(s) old.

----------------
----------------
----------------
2---7-5-42---54-
2---5-5-22---52-
0-----3--0---3--


Snowstorm Eel Assembly Hustle

Guitar riff's name: Snowstorm Eel Assembly Hustle
Guitar riff generated on 2020-02-27 02:30:34
This riff is 158 day(s) old.

-----------------
-----------------
-----------------
5---4---7---24---
5---2---5---02---
3----------------


Sinker Glove

Guitar riff's name: Sinker Glove
Guitar riff generated on 2020-02-27 02:30:25
This riff is 158 day(s) old.

-------------------
-------------------
-------------------
4---25---4-7---2---
2---05---2-5---2---
-----3---------0---


Indecent Overrule Gauze

Guitar riff's name: Indecent Overrule Gauze
Guitar riff generated on 2020-02-27 01:19:33
This riff is 158 day(s) old.

-----------------
-----------------
-----------------
7-2---722-4---55-
5-2---500-2---55-
--0-----------33-


Icebound Oarlock

Guitar riff's name: Icebound Oarlock
Guitar riff generated on 2020-02-27 00:34:49
This riff is 158 day(s) old.

----------------
----------------
----------------
4---4---7---7---
2---2---5---5---
----------------


Pond Fourteen

Guitar riff's name: Pond Fourteen
Guitar riff generated on 2020-02-26 23:49:32
This riff is 159 day(s) old.

------------------
------------------
------------------
5-2---2-4-5---5---
5-0---2-2-5---5---
3-----0---3---3---


Testis Strychnine

Guitar riff's name: Testis Strychnine
Guitar riff generated on 2020-02-26 23:41:40
This riff is 159 day(s) old.

----------------
----------------
----------------
7---4-4---4-5---
5---2-2---2-5---
------------3---


Swarm Regional Pellet Swimming

Guitar riff's name: Swarm Regional Pellet Swimming
Guitar riff generated on 2020-02-26 23:33:12
This riff is 159 day(s) old.

----------------
----------------
----------------
2-2-2-7-72-25---
0-0-2-5-50-05---
----0-------3---


Frock Grapevine Overrule

Guitar riff's name: Frock Grapevine Overrule
Guitar riff generated on 2020-02-26 23:22:13
This riff is 159 day(s) old.

------------------
------------------
------------------
554---2---2---5---
552---2---2---5---
33----0---0---3---


[1] 2 3 4 5 6 7 8 9 10 11 > >>