Guitar Riffs Archive

This is an archive of all of the random guitar riffs that this script has ever generated that are archived in the database.


Dry Bookmaker Spore Partridge

Guitar riff's name: Dry Bookmaker Spore Partridge
Guitar riff generated on 2018-07-18 16:09:15
This riff is less than 1 day old

Listen to the computer-generated guitar riff:

-----------------
-----------------
-----------------
55---75---5-74---
55---55---5-52---
33----3---3------


Bid Cordial Right

Guitar riff's name: Bid Cordial Right
Guitar riff generated on 2018-07-18 16:08:53
This riff is less than 1 day old

Listen to the computer-generated guitar riff:

------------------
------------------
------------------
75---5-4---22-2---
55---5-2---00-2---
-3---3--------0---


Dooryard Whelp Threescore

Guitar riff's name: Dooryard Whelp Threescore
Guitar riff generated on 2018-07-18 16:08:53
This riff is less than 1 day old

Listen to the computer-generated guitar riff:

-----------------
-----------------
-----------------
5-4-45-54-75-4---
5-2-25-52-55-2---
3----3-3---3-----


Sackcloth Bound

Guitar riff's name: Sackcloth Bound
Guitar riff generated on 2018-07-18 16:05:13
This riff is less than 1 day old

Listen to the computer-generated guitar riff:

-------------------
-------------------
-------------------
7---4-2---2---77---
5---2-2---0---55---
------0------------


Clad Literature

Guitar riff's name: Clad Literature
Guitar riff generated on 2018-07-18 16:01:58
This riff is less than 1 day old

Listen to the computer-generated guitar riff:

-----------------
-----------------
-----------------
72-7---7-425-5---
52-5---5-205-5---
-0---------3-3---


Oriflamme Sorghum Forget

Guitar riff's name: Oriflamme Sorghum Forget
Guitar riff generated on 2018-07-18 16:01:55
This riff is less than 1 day old

Listen to the computer-generated guitar riff:

----------------
----------------
----------------
5-7-747-4---2---
5-5-525-2---2---
3-----------0---


Diplomacy Ballet Disrupt Cullender

Guitar riff's name: Diplomacy Ballet Disrupt Cullender
Guitar riff generated on 2018-07-18 16:01:43
This riff is less than 1 day old

Listen to the computer-generated guitar riff:

-----------------
-----------------
-----------------
4---4-52-4-7-2---
2---2-52-2-5-0---
------30---------


Cut Bemock Wet Detach

Guitar riff's name: Cut Bemock Wet Detach
Guitar riff generated on 2018-07-18 15:54:41
This riff is less than 1 day old

Listen to the computer-generated guitar riff:

----------------
----------------
----------------
5---5-44---25---
5---5-22---05---
3---3-------3---


Fatuous Unfit Running

Guitar riff's name: Fatuous Unfit Running
Guitar riff generated on 2018-07-18 15:48:56
This riff is less than 1 day old

Listen to the computer-generated guitar riff:

----------------
----------------
----------------
44---7---72---27
22---5---52---05
----------0-----


Amputate Llama Convention

Guitar riff's name: Amputate Llama Convention
Guitar riff generated on 2018-07-18 15:20:28
This riff is less than 1 day old

Listen to the computer-generated guitar riff:

-------------------
-------------------
-------------------
4---22---5-5-5-5---
2---00---5-5-5-5---
---------3-3-3-3---


[1] 2 3 4 5 6 7 8 9 10 11 > >>