Guitar Riffs Archive

This is an archive of all of the random guitar riffs that this script has ever generated that are archived in the database.


Racism Prosy

Guitar riff's name: Racism Prosy
Guitar riff generated on 2018-04-20 00:14:26
This riff is less than 1 day old

Listen to the computer-generated guitar riff:

----------------
----------------
----------------
774-22---2-2---4
552-00---2-0---2
---------0------


Dace Kazoo

Guitar riff's name: Dace Kazoo
Guitar riff generated on 2018-04-20 00:02:45
This riff is less than 1 day old

Listen to the computer-generated guitar riff:

----------------
----------------
----------------
7-42-7-7-44---7-
5-22-5-5-22---5-
---0------------


Brigade Transcendent

Guitar riff's name: Brigade Transcendent
Guitar riff generated on 2018-04-19 23:29:43
This riff is 1 day(s) old.

-----------------
-----------------
-----------------
4---4-52-2-2---7-
2---2-52-2-0---5-
------30-0-------


Phenobarbital Hipster Director Plenty

Guitar riff's name: Phenobarbital Hipster Director Plenty
Guitar riff generated on 2018-04-19 23:16:40
This riff is 1 day(s) old.

----------------
----------------
----------------
4---2---5---7-5-
2---0---5---5-5-
--------3-----3-


Demented Outstay Liege Broiler

Guitar riff's name: Demented Outstay Liege Broiler
Guitar riff generated on 2018-04-19 22:54:41
This riff is 1 day(s) old.

----------------
----------------
----------------
52---5-5---42---
50---5-5---22---
3----3-3----0---


Medicate Thrice Taw Anomaly

Guitar riff's name: Medicate Thrice Taw Anomaly
Guitar riff generated on 2018-04-19 22:54:36
This riff is 1 day(s) old.

------------------
------------------
------------------
757---4---5-4-4---
555---2---5-2-2---
-3--------3-------


Spur Wakeful Repugnance

Guitar riff's name: Spur Wakeful Repugnance
Guitar riff generated on 2018-04-19 22:53:54
This riff is 1 day(s) old.

-----------------
-----------------
-----------------
7247---4---4---5-
5025---2---2---5-
---------------3-


Lockstep Stealth

Guitar riff's name: Lockstep Stealth
Guitar riff generated on 2018-04-19 22:52:31
This riff is 1 day(s) old.

----------------
----------------
----------------
2---2---2-5-4---
2---0---2-5-2---
0-------0-3-----


Separate Devitalize Wholesale Ibis

Guitar riff's name: Separate Devitalize Wholesale Ibis
Guitar riff generated on 2018-04-19 22:37:12
This riff is 1 day(s) old.

-----------------
-----------------
-----------------
5---424-74---2---
5---202-52---0---
3----------------


Tray Agglomerate Factual Creepy

Guitar riff's name: Tray Agglomerate Factual Creepy
Guitar riff generated on 2018-04-19 22:37:00
This riff is 1 day(s) old.

----------------
----------------
----------------
2-7-5-7---2---7-
0-5-5-5---2---5-
----3-----0-----


[1] 2 3 4 5 6 7 8 9 10 11 > >>