Guitar Riffs Archive

This is an archive of all of the random guitar riffs that this script has ever generated that are archived in the database.


Traduce Anglicize

Guitar riff's name: Traduce Anglicize
Guitar riff generated on 2019-12-09 17:43:57
This riff is less than 1 day old

Listen to the computer-generated guitar riff:

------------------
------------------
------------------
5---5-4---4---7---
5---5-2---2---5---
3---3-------------


Shipyard Communism Lifework

Guitar riff's name: Shipyard Communism Lifework
Guitar riff generated on 2019-12-09 17:36:10
This riff is less than 1 day old

Listen to the computer-generated guitar riff:

----------------
----------------
----------------
4-27-5-5-2524---
2-05-5-5-0502---
-----3-3--3-----


Blockbuster Probable Myself

Guitar riff's name: Blockbuster Probable Myself
Guitar riff generated on 2019-12-09 17:34:40
This riff is less than 1 day old

Listen to the computer-generated guitar riff:

-----------------
-----------------
-----------------
7---5-77-2---5-4-
5---5-55-2---5-2-
----3----0---3---


Mawkish Tablet Consonance

Guitar riff's name: Mawkish Tablet Consonance
Guitar riff generated on 2019-12-09 17:34:39
This riff is less than 1 day old

Listen to the computer-generated guitar riff:

-----------------
-----------------
-----------------
7-25-7-7-2-55572-
5-05-5-5-0-55550-
---3-------333---


Benefaction Regular Masque Demoiselle

Guitar riff's name: Benefaction Regular Masque Demoiselle
Guitar riff generated on 2019-12-09 17:12:17
This riff is less than 1 day old

Listen to the computer-generated guitar riff:

----------------
----------------
----------------
7---77---57-2-5-
5---55---55-2-5-
---------3--0-3-


Theism Occurrence Opportunism Eliminate

Guitar riff's name: Theism Occurrence Opportunism Eliminate
Guitar riff generated on 2019-12-09 17:12:15
This riff is less than 1 day old

Listen to the computer-generated guitar riff:

----------------
----------------
----------------
4---72-4-7---542
2---52-2-5---520
-----0-------3--


Affright Exposure

Guitar riff's name: Affright Exposure
Guitar riff generated on 2019-12-09 17:11:27
This riff is less than 1 day old

Listen to the computer-generated guitar riff:

------------------
------------------
------------------
2---2---2-5---5---
0---2---2-5---5---
----0---0-3---3---


Erupt Surrey Pantaloons Carabao

Guitar riff's name: Erupt Surrey Pantaloons Carabao
Guitar riff generated on 2019-12-09 17:11:05
This riff is less than 1 day old

Listen to the computer-generated guitar riff:

-----------------
-----------------
-----------------
444---7---4554---
222---5---2552---
-----------33----


Pray Starveling Foresail Highwayman

Guitar riff's name: Pray Starveling Foresail Highwayman
Guitar riff generated on 2019-12-09 17:10:28
This riff is less than 1 day old

Listen to the computer-generated guitar riff:

----------------
----------------
----------------
42-57-5---7---5-
22-55-5---5---5-
-0-3--3-------3-


Transcript Overly Supersede Inhabitant

Guitar riff's name: Transcript Overly Supersede Inhabitant
Guitar riff generated on 2019-12-09 16:15:07
This riff is less than 1 day old

Listen to the computer-generated guitar riff:

-------------------
-------------------
-------------------
2-5-7-2-755-24-2---
2-5-5-0-555-02-2---
0-3------33----0---


[1] 2 3 4 5 6 7 8 9 10 11 > >>