Guitar Riffs Archive

This is an archive of all of the random guitar riffs that this script has ever generated that are archived in the database.


Hamlet Wanton Tanbark

Guitar riff's name: Hamlet Wanton Tanbark
Guitar riff generated on 2020-02-26 23:22:01
This riff is 139 day(s) old.

-----------------
-----------------
-----------------
27---44-74-2---2-
05---22-52-2---2-
-----------0---0-


Honey Terrorize Rot

Guitar riff's name: Honey Terrorize Rot
Guitar riff generated on 2020-02-26 23:05:31
This riff is 139 day(s) old.

-----------------
-----------------
-----------------
2---4-222---47---
0---2-002---25---
--------0--------


Redoubt Elope

Guitar riff's name: Redoubt Elope
Guitar riff generated on 2020-02-26 22:49:47
This riff is 139 day(s) old.

-------------------
-------------------
-------------------
5-55---42-42---2---
5-55---22-20---2---
3-33----0------0---


Admit Handkerchief Intertwine

Guitar riff's name: Admit Handkerchief Intertwine
Guitar riff generated on 2020-02-26 22:49:41
This riff is 139 day(s) old.

------------------
------------------
------------------
75---2-2-54---2---
55---2-0-52---2---
-3---0---3----0---


Causal Subscribe Woodpile Yeasty

Guitar riff's name: Causal Subscribe Woodpile Yeasty
Guitar riff generated on 2020-02-26 22:48:31
This riff is 139 day(s) old.

------------------
------------------
------------------
4-4-7-2---2---2---
2-2-5-2---0---2---
------0-------0---


Nomenclature Cheque

Guitar riff's name: Nomenclature Cheque
Guitar riff generated on 2020-02-26 22:46:43
This riff is 139 day(s) old.

-----------------
-----------------
-----------------
2---52---22-57-4-
2---50---02-55-2-
0---3-----0-3----


Demented Badger Mounting

Guitar riff's name: Demented Badger Mounting
Guitar riff generated on 2020-02-26 22:45:56
This riff is 139 day(s) old.

----------------
----------------
----------------
2-5-75-7-5-572-2
2-5-55-5-5-552-0
0-3--3---3-3-0--


Nondescript Direful Matchwood

Guitar riff's name: Nondescript Direful Matchwood
Guitar riff generated on 2020-02-26 22:45:05
This riff is 139 day(s) old.

------------------
------------------
------------------
44-2---44-542-2---
22-0---22-522-0---
----------3-0-----


Curious Jab Socialize Jigger

Guitar riff's name: Curious Jab Socialize Jigger
Guitar riff generated on 2020-02-26 22:44:25
This riff is 139 day(s) old.

----------------
----------------
----------------
2---4-57-27---45
0---2-55-05---25
------3--------3


Matter Hop Individuality Expedient

Guitar riff's name: Matter Hop Individuality Expedient
Guitar riff generated on 2020-02-26 22:43:55
This riff is 139 day(s) old.

-----------------
-----------------
-----------------
5-4---2-2-44---5-
5-2---2-2-22---5-
3-----0-0------3-


<< < 1 [2] 3 4 5 6 7 8 9 10 11 12 > >>