Guitar Riffs Archive

This is an archive of all of the random guitar riffs that this script has ever generated that are archived in the database.


Innominate Errand Shad Compendium

Guitar riff's name: Innominate Errand Shad Compendium
Guitar riff generated on 2020-02-25 15:49:10
This riff is 1577 day(s) old.

-----------------
-----------------
-----------------
75-55-2---2-44-5-
55-55-0---2-22-5-
-3-33-----0----3-


Smock Barrel Pathetic

Guitar riff's name: Smock Barrel Pathetic
Guitar riff generated on 2020-02-25 15:48:26
This riff is 1577 day(s) old.

----------------
----------------
----------------
5-2-7---7-5---25
5-0-5---5-5---05
3---------3----3


Arboreal Ingrain

Guitar riff's name: Arboreal Ingrain
Guitar riff generated on 2020-02-25 15:39:12
This riff is 1577 day(s) old.

-----------------
-----------------
-----------------
5---4-2---2475---
5---2-0---0255---
3------------3---


Uppity Laborsaving

Guitar riff's name: Uppity Laborsaving
Guitar riff generated on 2020-02-25 15:13:09
This riff is 1577 day(s) old.

-----------------
-----------------
-----------------
74---252-7-7-5---
52---052-5-5-5---
------30-----3---


Limerick Beer Linoleum Heatstroke

Guitar riff's name: Limerick Beer Linoleum Heatstroke
Guitar riff generated on 2020-02-25 15:13:07
This riff is 1577 day(s) old.

----------------
----------------
----------------
44---24-55-72---
22---02-55-50---
--------33------


Undertow Charades Vizier

Guitar riff's name: Undertow Charades Vizier
Guitar riff generated on 2020-02-25 15:07:01
This riff is 1577 day(s) old.

-----------------
-----------------
-----------------
7757-47---25-5-7-
5555-25---05-5-5-
--3--------3-3---


Clip Headrest

Guitar riff's name: Clip Headrest
Guitar riff generated on 2020-02-25 15:06:41
This riff is 1577 day(s) old.

------------------
------------------
------------------
2-4-4---25---77---
2-2-2---05---55---
0--------3--------


Piffle Margent Unsung

Guitar riff's name: Piffle Margent Unsung
Guitar riff generated on 2020-02-25 15:04:35
This riff is 1577 day(s) old.

----------------
----------------
----------------
2---24-22-7-2---
0---02-02-5-0---
--------0-------


Currant Bowsprit Peduncle Unmoved

Guitar riff's name: Currant Bowsprit Peduncle Unmoved
Guitar riff generated on 2020-02-25 14:57:01
This riff is 1577 day(s) old.

----------------
----------------
----------------
55---2-2-4-4-72-
55---0-2-2-2-50-
33-----0--------


Parkway Diva Oil Allure

Guitar riff's name: Parkway Diva Oil Allure
Guitar riff generated on 2020-02-25 14:56:54
This riff is 1577 day(s) old.

----------------
----------------
----------------
2422---25-4-2-52
0200---05-2-0-50
--------3-----3-


<< < 9 10 11 12 13 14 15 16 17 18 [19] 20 21 22 23 24 25 26 27 28 29 > >>